Guitaretab - guitar tabs
Song name
# A B C D E F G H I J K L M N O P Q R S T U V W X Y Z

R Kelly - Rock Star tab

it might sound out of tune on standard, but it works.

in the vid, this is when Kid Rock is playing his guitar in the bus.

e|-----------------------------------------------------------------------------|
B|-----------------------------------------------------------------------------|
G|---------------3b^5----1-0-1---3-4-3-4--6--4-3-4-3--1-0-1--------------------|
D|-----------------------------------------------------------------------------|
A|-----------------------------------------------------------------------------|
E|-----------------------------------------------------------------------------|

When it got to this part, i had a trick to keep up with the vid.  When it goes to
don't play the last 3.  Optional, don't need the 1 x 1 note on the A, just to keep up 
the vid.
[ Tab from: http://www.guitaretab.com/r/r-kelly/160573.html ]
e|---------------------------------------------------------------------------|
B|---------------------------------------------------------------------------|
G|-3-x-3---3b^5-3----e 3-x-3---3b^5-1----1-x-1---3b^5------------------------|
D|-3-x-3---------------3-x-3-------------------------------------------------|
A|-1-x-1---------------1-x-1-------------------------------------------------|
E|---------------------------------------------------------------------------|


e|---------------------------------------------------------------------------|
B|---------------------------------------------------------------------------|
G|-3-----1-------3-----------3--1-----3-4---6---4-3-4-3--1-0-1-----3---------|
D|---------------3-------------------------------------------------3---------|
A|---------------1-------------------------------------------------1---------|
E|---------------------------------------------------------------------------|
Related for Rock Star tab
Advertisement will be closed in 10 seconds