R Kelly - Taxi Cab Acoustic tab

R. Kelly - Taxi Cab

This is an acoustic arrangement for the song.
Tabbed by Ian Fain



intro & ending section of verse
e---------------------|
b----3-----3------5-5~|
g----3-----3------5-5~|
d----5-----1------6-6~|
a--------3---3--7---7~|
e--3--3---------------|



verse
e---------------------------|
b----3-----3------5------5--|
g----3-----3------5------5--|
d----5-----1------7------6--|
a--------3---3--8---8--7---7|
e--3--3---------------------|



chorus
e---------------------3----3---|
b----3-3----3-3-----3-3----3---|
g----3-3----3-3-----3-3----3---|
d----5-5----1-1-----5-5--------|
a---------3---3---5---5--5-----|
e--3---3-----------------------|
Tap to rate this tab
 
# A B C D E F G H I J K L M N O P Q R S T U V W X Y Z