Song name
# A B C D E F G H I J K L M N O P Q R S T U V W X Y Z

R Kelly - Storm Is Over tab

-------------------------------------------------------------------------------
			     Storm is Over-R Kelly
-------------------------------------------------------------------------------
Tabbed by:Jeffkamungu
Email:geoffykom@yahoo.com

Tuning:Standard
Main body & Chorus throughout.
       Asus                D                         E          
e|--------------|----------2h3p2--------|------------------------0-----------|
B|-----------0--|------------------3----|---------------0-------0---0--------|
G|--------2-----|------2----------------|-----------1----------1-------------|
D|-----2--------|--0--------------------|-------2-------------2--------------|
A|--0-----------|-----------------------|--------------------2---------------|
E|--------------|-----------------------|--0----------------0----------------|
Pre-chorus    
    D                Asus/C#                Bm 7
e|-------------2--|-------------0----|------------------2--------------------|
B|---------3------|---------0--------|-----------3-----3------3--------------|
G|-----2----------|------2-----------|--------2-------2----------------------|
D|--0-------------|------------------|-----4---------4-----------------------|
A|----------------|--4---------------|--2-----------2------------------------|
E|----------------|------------------|---------------------------------------|
     D                Asus/C#                Bm 7
e|-------------2--|-------------0----|------------------2------|--2----------|
B|---------3------|---------0--------|-----------3-----3------3|--3----------|
G|-----2----------|------2-----------|--------2-------2--------|--2----------|
D|--0-------------|------------------|-----4---------4---------|--2----------|
A|----------------|--4---------------|--2-----------2----------|-------------|
E|----------------|------------------|-------------------------|-------------|

for the chorus end with F#m 7
Tap to rate this tab
 
# A B C D E F G H I J K L M N O P Q R S T U V W X Y Z