Song name
# A B C D E F G H I J K L M N O P Q R S T U V W X Y Z

Ra Ra Riot - Dying Is Fine tab

              #   Dying is Fine by Ra Ra Riot  #
              #     ...off The Rhumb Line      #
              #      Tabbed by: wtflolbbq      #


Notes: Enjoy!


Intro/Verse
e|-----------------------------------------------------------------------0---|
B|------------------------------------------------------------------------0--|
G|----7----7----7------6----6----6------7----7----7------11----11---11-------|
D|--5----5----5------7----7----7------9----9----9------12----12---12---------|
A|----------------------0----------------0-----------------0-----------------|
E|---------------------------------------------------------------------------|

e||---------------------------------------------------------------------------|
B||o--------------------------------------------------------------------------|
G||----7----7----7------6----6----6------7----7----7------11----11------------|
D||--5----5----5------7----7----7------9----9----9------12----12---12---------|
A||o---------------------0----------------0-----------------0-----------------|
E||---------------------------------------------------------------------------|

e|-------------------||
B|-15----14----14---o||
G|---14----14----14--||
D|-----12----12------||
A|------------------o||
E|-------------------||

Pre-Chorus
e|--------------------------------------------------|
B|--------------------------------------------------|
G|--------------------------------------------------|
D|-5!----7!----9!--11!--12!-------------------------|
A|----------------------------10-10-10-10109-997-77-|
E|--------------------------------------------------|

Chorus
e|---------------------------------------------------------------------------|
B|---------------------------------------------------------------------------|
G|---------------------------------------------------------------------------|
D|-------------------------4-4-4-4-4-----4-----4---5-5-5-5-5-----5-----5-----|
A|-5-5-5-5-5-0-2-5-0-2-5-0-----------0-2---0-2---0-----------0-2---0-2---0---|
E|---------------------------------------------------------------------------|

e|------------------|
B|------------------|
G|---------66666666-|
D|-7-7-7-7----------|
A|------------------|
E|------------------|

Verse
e|-----------------------------------------------------------------------0---|
B|------------------------------------------------------------------------0--|
G|----7----7----7------6----6----6------7----7----7------11----11---11-------|
D|--5----5----5------7----7----7------9----9----9------12----12---12---------|
A|----------------------0----------------0-----------------0-----------------|
E|---------------------------------------------------------------------------|

e||---------------------------------------------------------------------------|
B||o--------------------------------------------------------------------------|
G||----7----7----7------6----6----6------7----7----7------11----11------------|
D||--5----5----5------7----7----7------9----9----9------12----12---12---------|
A||o---------------------0----------------0-----------------0-----------------|
E||---------------------------------------------------------------------------|

e|-------------------||
B|-15----14----14---o||
G|---14----14----14--||
D|-----12----12------||
A|------------------o||
E|-------------------||

Pre-Chorus
e|--------------------------------------------------|
B|--------------------------------------------------|
G|--------------------------------------------------|
D|-5!----7!----9!--11!--12!-------------------------|
A|----------------------------10-10-10-10109-997-77-|
E|--------------------------------------------------|
    ! = trem pick (pick REAL fast!)

Chorus
e|--------------------------------------------------|
B|--------------------------------------------------|
G|--------------------------------------------------|
D|-------------------------4-4-4-4-4-----4-----4----|
A|-5-5-5-5-5-0-2-5-0-2-5-0-----------0-2---0-2---0--|
E|--------------------------------------------------|

e|--------------------------------------------------|
B|--------------------------------------------------|
G|--------------------------------------------------|
D|-5-5-5-5-5-----5-----5---7-7-7-7-7-----7-----7----|
A|-----------0-2---0-2---0-----------0-4---0-4---0--|
E|--------------------------------------------------|

e|---------------------------------------------------------------------------|
B|---------------------------------------------------------------------------|
G|---------------------------------------------------------------------------|
D|-------------------------4-4-4-4-4-----4-----4---5-5-5-5-5-----5-----5-----|
A|-5-5-5-5-5-0-2-5-0-2-5-0-----------0-2---0-2---0-----------0-2---0-2---0---|
E|---------------------------------------------------------------------------|

e|------------------|
B|------------------|
G|---------66666666-|
D|-7-7-7-7----------|
A|------------------|
E|------------------|

Interlude
e|---------------------------------------------------------------------------|
B|---------------------------------------------------------------------------|
G|---------------------------------------------------------------------------|
D|-----4-7----/7-5-4----2--2-000------4477---/77554--4/9\77/1212\4-----------|
A|---5-------5----------------------55------55-------------------------------|
E|-7-------3----------------------77------33---------------------------------|
                                  ............
e|-----------------------------------------------------------------------------|
B|-----------------------------------------------------------------------------|
G|-----------------------------------------------------------------------------|
D|-----4-7----/7-5-4--4\2222000------4477---/77554--4-9\77/1212\4--------------|
A|---5-------55--------------------55------55----------------------------------|
E|-7-------33--------------------77------33------------------------------------|
           ....                   .....  .....
e|---------------------------------------------------------------------------|
B|---------------------------------------------------------------------------|
G|---------------------------------------------------------------------------|
D|-----4-7----/7-5-4---4--/9-9777-----4477---/7-5-4-4-/9-9-9-7-7-7-----------|
A|---55------5----------------------55------55-------------------------------|
E|-77------33---------------------77------33---------------------------------|
   ....    ...
e|---------------------------------------------------------------------------|
B|---------------------------------------------------------------------------|
G|---------------------------------------------------------------------------|
D|-12--12--12--12--12--12--12--12--12--12--12--12--12--12--12--12------------|
A|---14--14--14--14--14--14--14--14--14--14--14--14--14--14--14--14----------|
E|---------------------------------------------------------------------------|

Chorus
e|--------------------------------------------------|
B|--------------------------------------------------|
G|--------------------------------------------------|
D|-------------------------4-4-4-4-4-----4-----4----|
A|-5-5-5-5-5-0-2-5-0-2-5-0-----------0-2---0-2---0--|
E|--------------------------------------------------|

e|--------------------------------------------------|
B|--------------------------------------------------|
G|--------------------------------------------------|
D|-5-5-5-5-5-----5-----5---7-7-7-7-7-----7-----7----|
A|-----------0-2---0-2---0-----------0-4---0-4---0--|
E|--------------------------------------------------|

e|---------------------------------------------------------------------------|
B|---------------------------------------------------------------------------|
G|---------------------------------------------------------------------------|
D|-------------------------4-4-4-4-4-----4-----4---5-5-5-5-5-----5-----5-----|
A|-5-5-5-5-5-0-2-5-0-2-5-0-----------0-2---0-2---0-----------0-2---0-2---0---|
E|---------------------------------------------------------------------------|

e|------------------|
B|------------------|
G|------------------|
D|-7-7-7-7----------|
A|------------------|
E|--------/99999999-|

Outro
e|--------------------------------------------------|
B|--------------------------------------------------|
G|------------11----------11--14--------------------|
D|-12--11-12------12--11----------------------------|
A|------------9-----------9---12--------------------|
E|-10--9--10------10--9-----------------------------|
Listen for the rhythm in the song, it's a bit too varied to tab out.
Each octave plays for 16 beats (4 measures).


************************************

| /   slide up
| \   slide down
| !   tremelo pick
| .   palm mute

************************************
Tap to rate this tab
# A B C D E F G H I J K L M N O P Q R S T U V W X Y Z