Song name
# A B C D E F G H I J K L M N O P Q R S T U V W X Y Z

Ra - Fallen Angels tab

intro
e-----------------------|  this is in drop d but if im wrong send me an email
b-----------------------|  @ pinkmaggot69@yahoo.com go0d luck
g-----------------------|
d9999--9999--9999--9999-|
a9999--9999--9999--9999-|
d9999--9999--9999--9999-|
verse
e--0---0----0--0----0---0-----0---0--|
b-4-4------4-4-----4-4-------4-4---4-|
g6---6--------4---2---2-----4---4----|
d--------------------------4-----4---|
a------------------------------------|
d------------------------------------|
chorus
e-----------|
b-----------|
g6--66------| x2
d6--660--7--|
a4--440--7--|
d0--000--7--|

e------------------------|
b------------------------|
g-------------66---------|
d4-44x-0------66-66-44-0-|
a4-44x-0------44-66-44-0-|
d4-44x-0------00-66-44-0-|
verse again
chorus again

the bridge
is just like the verse
then back into the chorus
till the end

well thats all folks! laterz
Tap to rate this tab
# A B C D E F G H I J K L M N O P Q R S T U V W X Y Z