Song name
# A B C D E F G H I J K L M N O P Q R S T U V W X Y Z

Ra - Fallen Rock Zone tab

Fallen Rock Zone
tab by Damien Smith

/=Slide
b=Bend
p=Pull off
r=Release bend
E----------------------------------------------------------------------------------------------|
B--7--6------6--------------------------3------------------------------------------------------|
G--------7------7---6---4----3---4---6------6----4----3---4------------------------7---6---7/9-|
D-------------------------------------------------------------5---4----5---4-------------------|
A----------------------------------------------------------------------------------------------|
E----------------------------------------------------------------------------------------------|

E---------------------------------------------------7--------------------------------|
B-------------7---8-----7----8---7---8----7------7------7-----------------7---8p7----|
G----7---9-----------9------------------------9-------------9----7---9---------------|
D------------------------------------------------------------------------------------|
A------------------------------------------------------------------------------------|
E------------------------------------------------------------------------------------|

E----------------------------------------------------------------------------------------------|
B---12---9---12b13r12----12p9---12----9---12-----12---9----12------12---9---12------12---9--12-|
G---------------------------------------------12---------------11---------------10-------------|
D----------------------------------------------------------------------------------------------|
A----------------------------------------------------------------------------------------------|
E----------------------------------------------------------------------------------------------|

E-------------------------------------------------------------------------------------|
B--12--9----12/7----5----7b8r7-----0---2---3/5---3----5/7----5---7/12-----------------|
G-------------------------------------------------------------------------------------|
D-------------------------------------------------------------------------------------|
A-------------------------------------------------------------------------------------|
E-------------------------------------------------------------------------------------|

Pretty sure that this is right, if anyone has any thing to add send me an emial. 
damo19_2006@hotmail.com
Tap to rate this tab
 
# A B C D E F G H I J K L M N O P Q R S T U V W X Y Z