Song name
# A B C D E F G H I J K L M N O P Q R S T U V W X Y Z

Ra - Do You Call My Name tab

-------------------------------------------------------------------------------
                        Do You Call My Name - Ra
-------------------------------------------------------------------------------
Tabbed by: Andres "silvadolla" Ali
Email: andres.ali@gmail.com

Tuning: EADGBE (STANDARD)


As you may have noticed, I left this tab very barren, this is only a template, add your 
to the song.
I don't think that Ra uses this tuning, but I ear transcribed this for standard, and it 
pretty accurate.

Acoustic intro:


e|---------------------------------------------------------------------------|
B|---------------------------------------------------------------------------|
G|---------------------------------------------------------------------------|
D|---------------------------------------------------------------------------|
A|-7-8-11-12-11-8-7----------------------------------------------------------|
E|---------------------------------------------------------------------------|
x16

e|---------------------------------------------------------------------------|
B|---------------------------------------------------------------------------|
G|---------------------------------------------------------------------------|
D|---------------------------------------------------------------------------|
A|-8-7-11--8-7-11-12-14----8-7-11--8-7-11------------------------------------|
E|---------------------------------------7-8-10------------------------------|
 x4                                ^--- stop there 4th time

Intro (distorted):


e|---------------------------------------------------------------------------|
B|---------------------------------------------------------------------------|
G|---------------------------------------------------------------------------|
D|---------------------------------------------------------------------------|
A|-8-7-11--8-7-11-12-14----8-7-11--8-7-11------------------------------------|
E|---------------------------------------7-8-10------------------------------|
x4

e|---------------------------------------------------------------------------|
B|---------------------------------------------------------------------------|
G|---------------------------------------------------------------------------|
D|---------------------------------------------------------------------------|
A|---------------------------------------------------------------------------|
E|--15-17--------------------------------------------------------------------|

e|---------------------------------------------------------------------------|
B|---------------------------------------------------------------------------|
G|---------------------------------------------------------------------------|
D|---------------------------------------------------------------------------|
A|-10-10-9-9--9---10-10-9-9--9--3-3-2-2--2--3-3-2-2--2-----------------------|
E|---------------------------------------------------------------------------|
x2

e|---------------------------------------------------------------------------|
B|---------------------------------------------------------------------------|
G|---------------------------------------------------------------------------|
D|---------------------------------------------------------------------------|
A|3-2-2-2-2-3-2-2-2-9---3-2-2-2-2-3-2-2-2-5----------------------------------|
E|1-0-0-0-0-1-0-0-0-7---1-0-0-0-0-1-0-0-0-3----------------------------------| x2

e|---------------------------------------------------------------------------|
B|---------------------------------------------------------------------------|
G|---------------------------------------------------------------------------|
D|---------------------------------------------------------------------------|
A|-10-10-10-10-10-10---9-9-9--2-2-2-5--10-10-10-10-10-10--9-9-9--2-2-2-2-2-2-|
E|-8--8--8--8---8--8---7-7-7--0-0-0-3---8--8--8--8--8--8--7-7-7--0-0-0-0-0-0-|

e|---------------------------------------------------------------------------|
B|---------------------------------------------------------------------------|
G|---------------------------------------------------------------------------|
D|---------------------------------------------------------------------------|
A|-10-10-10-10-10-10---9-9-9--2-2-2-5--10-10-10-10-10-10--9-9-9--2-2-2-5-----|
E|-8--8--8--8---8--8---7-7-7--0-0-0-3---8--8--8--8--8--8--7-7-7--0-0-0-3-----|

e|---------------------------------------------------------------------------|
B|---------------------------------------------------------------------------|
G|---------------------------------------------------------------------------|
D|---------------------------------------------------------------------------|
A|-10-10-9-9--9---10-10-9-9--9--3-3-2-2--2--3-3-2-2--2-----------------------|
E|---------------------------------------------------------------------------|
x2

e|---------------------------------------------------------------------------|
B|---------------------------------------------------------------------------|
G|---------------------------------------------------------------------------|
D|---------------------------------------------------------------------------|
A|3-2-2-2-2-3-2-2-2-9---3-2-2-2-2-3-2-2-2-5----------------------------------|
E|1-0-0-0-0-1-0-0-0-7---1-0-0-0-0-1-0-0-0-3----------------------------------| x2

e|---------------------------------------------------------------------------|
B|---------------------------------------------------------------------------|
G|---------------------------------------------------------------------------|
D|---------------------------------------------------------------------------|
A|-10-10-10-10-10-10---9-9-9--2-2-2-5--10-10-10-10-10-10--9-9-9--2-2-2-2-2-2-|
E|-8--8--8--8---8--8---7-7-7--0-0-0-3---8--8--8--8--8--8--7-7-7--0-0-0-0-0-0-|

e|---------------------------------------------------------------------------|
B|---------------------------------------------------------------------------|
G|---------------------------------------------------------------------------|
D|---------------------------------------------------------------------------|
A|-10-10-10-10-10-10---9-9-9--2-2-2-5--10-10-10-10-10-10--9-9-9--2-2-2-5-----|
E|-8--8--8--8---8--8---7-7-7--0-0-0-3---8--8--8--8--8--8--7-7-7--0-0-0-3-----|

e|---------------------------------------------------------------------------|
B|--1-0-3-1--1-0-5-3--1-0-3-1--1-0-5-3---------------------------------------|
G|---------------------------------------------------------------------------|
D|---------------------------------------------------------------------------|
A|---------------------------------------------------------------------------|
E|---------------------------------------------------------------------------|

e|---------------------------------------------------------------------------|
B|---------------------------------------------------------------------------|
G|---------------------------------------------------------------------------|
D|---------------------------------------------------------------------------|
A|-8-7-11--8-7-11-12-14----8-7-11--8-7-11------------------------------------|
E|---------------------------------------7-8-10------------------------------|
x4

e|---------------------------------------------------------------------------|
B|---------------------------------------------------------------------------|
G|---------------------------------------------------------------------------|
D|---------------------------------------------------------------------------|
A|-10-10-10-10-10-10---9-9-9--2-2-2-5--10-10-10-10-10-10--9-9-9--2-2-2-2-2-2-|
E|-8--8--8--8---8--8---7-7-7--0-0-0-3---8--8--8--8--8--8--7-7-7--0-0-0-0-0-0-|

e|---------------------------------------------------------------------------|
B|---------------------------------------------------------------------------|
G|---------------------------------------------------------------------------|
D|---------------------------------------------------------------------------|
A|-10-10-10-10-10-10---9-9-9--2-2-2-5--10-10-10-10-10-10--9-9-9--2-2-2-5-----|
E|-8--8--8--8---8--8---7-7-7--0-0-0-3---8--8--8--8--8--8--7-7-7--0-0-0-3-----|

e|---------------------------------------------------------------------------|
B|---------------------------------------------------------------------------|
G|---------------------------------------------------------------------------|
D|---------------------------------------------------------------------------|
A|-10-10-9-9--9---10-10-9-9--9--3-3-2-2--2--3-3-2-2--2-----------------------|
E|---------------------------------------------------------------------------| x4     E5 fine.


| /  slide up
| \  slide down
| h  hammer-on
| p  pull-off
| ~  vibrato
| +  harmonic
| x  Mute note
===============================================================================
Tap to rate this tab
 
# A B C D E F G H I J K L M N O P Q R S T U V W X Y Z