Song name
# A B C D E F G H I J K L M N O P Q R S T U V W X Y Z

Ra - Swimming Upstream tab

Help us improve GuitareTab! Take a short survey!

Intro/Verse

e|----------------------------------------------------|-------|
B|----------------------------------------------------|-------|
G|-----------5-----------5------------3-------2-------|---5---|
D|--------3-----3-----3-----3------3-----3-------3----|---3---|
A|-----5-----------0----------------------------------|---5---|
E|------------------------------3-----------3---------|---3---|


Chorus

e|------------------------------------------------------------0----------|
B|-------------3---------------1--------------3-------------1---1--------|
G|-----------0----0---0------0---0---0------0---0---0-----0-------0------|
D|---------3--------3------3-------3------3-------3-----3----------------|X2
A|-------1---------------0--------------1-------------0------------------|
E|-----------------------------------------------------------------------|


Related for Swimming Upstream tab