Guitaretab - guitar tabs
Song name
# A B C D E F G H I J K L M N O P Q R S T U V W X Y Z

Ra - Crazy Little Voices tab

Band - Ra
Song - Crazy Little Voices

This is a great song by Ra that no one knows about. You can listen to it at
http://www.fallenrockzone.net/music - I love this song. It's probably one of my
favortie

x = palm mute
~ = let ring

Drop D Tuning

---------------------------------------------------|
---------------------------------------------------|
---------------------------------------------------|
---------------------------------------------------|
---------------------------------------------------|
-555555-666666--10-11-10(x6)-44444444--------------|

--------------------------------------|
--------------------------------------|
--------------------------------------|
--------------------------------------|
--------------------------------------|
-555555-666666--10-11-10(x13)---------|
Intro/verse part 1(play one time through) - Some distortion with maybe a Flanger effect
[ Tab from: http://www.guitaretab.com/r/ra/81662.html ]
------------------------------------------------------|
------------------------------------------------------|
------------------------------------------------------|
-5555555-6666666-10-11-10(6x)-444444------------------|
-5555555-6666666-10-11-10(6x)-444444------------------|
-5555555-6666666-10-11-10(6x)-444444------------------|

--------------------------------------------------------|
--------------------------------------------------------|
--------------------------------------------------------|
-5555555-6666666-10-11-10(6x)-xxxxxxxx------------------|
-5555555-6666666-10-11-10(6x)-xxxxxxxx------------------|
-5555555-6666666-10-11-10(6x)-xxxxxxxx------------------|
Intro/verse part 2 - Full distortion (play once)


Chorus

--------------------------------------------------|
--------------------------------------------------|
--------------------------------------------------|
-777777777-222222222-777777777-000000000----------|
-777777777-222222222-777777777-000000000----------|
-777777777-222222222-777777777-000000000----------|
Warm, Acoustic Sound. Strum up and down. Repeat 4 times.

Play full intro during "Bring my the rage"

Now play....

Intro
Chorus
Solo (I just do improv. You can tab it youself)

Bridge

-------------------|
-------------------|
-------------------|
-5~-5~-6~----------|
-5~-5~-6~----------|
-5~-5~-6~----------|
Play 3 times

Now play intro part 2 till it fades out.
Related for Crazy Little Voices tab