Song name
# A B C D E F G H I J K L M N O P Q R S T U V W X Y Z

Rabbi Shergill - Ishtihaar tab

Tabber  =  Chitrank
Date    =  20/9/05 

Rabbi Shergill
Ishtihaar

-----------------------------------------------------------------------------
Intro x 4
e----------------------------|
b----------------------------|
g-----4-----4-----4-----4----|
d---5---5-5---5-5---5-5------|
a-3--------------------------|
e----------------------------|

e----------------------------|
b----------------------------|
g-----5-----5-----5-----5----|
d---5---5-5---5-5---5-5------|
a-3--------------------------|
e----------------------------|

-----------------------------------------------------------------------------
Tap to rate this tab
# A B C D E F G H I J K L M N O P Q R S T U V W X Y Z