Song name
# A B C D E F G H I J K L M N O P Q R S T U V W X Y Z

Rac - Hard To Hold tab

Rad tuneage...99% correct! Comment and rate, or just jam...enjoy!

Artist: RAC feat. Tegan and Sara
Song: Hard to Hold      
Album: Strangers, Part I
Tuning: Standard

Intro

e |--5------4-----5--------|
B |--5------5-----7--------|
G |--6------6-----6--------|
D |--7------6-----7--------|
A |--7------4-----5--------|    
E |--5------x-----x--------|

Verse 1

e |-5----7----5----5--------|
B |-7----9----5----7--------|
G |-6----9----6----6--------|
D |-7----9----7----7--------|
A |-5----7----7----5--------|   
E |-x----x----5----x--------|

I've got to liberate first
The list of fiction
My mouth has made first
Eliminate the distance between us

I've got to implicate first
The list of lies
My mind has made first
Eliminate the distance between us

Pre - Chorus

e |-5----7----5----5--------|
B |-7----9----5----7--------|
G |-6----9----6----6--------|
D |-7----9----7----7--------|
A |-5----7----7----5--------|   
E |-x----x----5----x--------|

Truth be told
You're hard to hold
You've gotta want it
You've gotta want it right now

Chorus

e |--5---5---4-----5--------|
B |--5---7---5-----7--------|
G |--6---6---6-----6--------|
D |--7---7---6-----7--------|
A |--7---5---4-----5--------|   
E |--5---x---x-----x--------|


If you don't want me
Baby, you don't deserve me
You've got to want it right now

If you don't want me
Baby, you don't deserve me
I've got to want it right now

Verse 2

You've got to cooperate first
List the wounds
That caused me pain first
Eliminate the distance between us

You've got to illustrate first
List the damage
That caused me pain first
Eliminate the distance between us

Pre - Chorus

Chorus

Bridge

e |--4-------5----4---5-----|
B |--5-------7----5---7-----|
G |--6-------6----6---6-----|
D |--6-------7----6---7-----|
A |--4-------5----4---5-----|   
E |--x-------x----x---x-----|


I can feel the difference
That a little distance
In between us starts to show

I can tell what you want
If you really want to know
I can take you to the top
If you really want to go

If you just say yes
If you stop saying no
If you just attest
That you want me so

Chorus
Tap to rate this tab
# A B C D E F G H I J K L M N O P Q R S T U V W X Y Z