Guitaretab - guitar tabs
Song name
# A B C D E F G H I J K L M N O P Q R S T U V W X Y Z

Race The Sun - Weak Would Be Me Flinching tab

What a great song.


Intro
e|------------------------------------------------------------------------------------|
B|------------------------------------------------------------------------------------|
G|-------12-----------------------12--------------------------------------------------|
D|--------13/12/13----------------13/12/13------------13------------------------------|
A|-------------------13--11-------------------13--11----------------------------------|
D|------------------------------------------------------------------------------------|
   continue intro throughout

Verse
e|-----------------------------------|
B|-----------------------------------|
G|-----------------------------------|
D|-6-6------X 7----666666666666666---|
A|-6-6--------------666666666666666--|
D|-6-6--------------666666666666666--|
pm .  .                  . . . . . . . . . . . . .

Prechorus
e|----------------------------------------------------------------------------------------------------------------------------|
B|----------------------------------------------------------------------------------------------------------------------------|
G|----------------------------------------------------------------------------------------------------------------------------|
D|-10--10/13-13----6-6-6-6/8\6----10--10/13-13----6-6-6-6/8\6----10--10/13-13----6-6-6-6/8\6-----10--10/13-13----6-6-6-6/8\6--|
A|-10--10/13-13----6-6-6-6/8\6----10--10/13-13----6-6-6-6/8\6----10--10/13-13----6-6-6-6/8\6-----10--10/13-13----6-6-6-6/8\6--|
D|-10--10/13-13----6-6-6-6/8\6----10--10/13-13----6-6-6-6/8\6----10--10/13-13----6-6-6-6/8\6-----10--10/13-13----6-6-6-6/8\6--|


Verse 2
e|----------------------------------------------------------------------------------------------------------------|
B|----------------------------------------------------------------------------------------------------------------|
G|----------------------------------------------------------------------------------------------------------------|
D|--6-6-6-6--x4----66--66--66--666-10-10-8-8-66--66-66-666-10-10-8-8-66--66--66--666-10-10-8-8-6666666666666666---|
A|--6-6-6-6---------66--66--66--666-10-10-8-8-66--66-66-666-10-10-8-8-66--66--66--666-10-10-8-8-6666666666666666--|
D|--6-6-6-6---------66--66--66--666-10-10-8-8-66--66-66-666-10-10-8-8-66--66--66--666-10-10-8-8-6666666666666666--|
pm  .  .  .  .

Prechorus
e|----------------------------------------------------------------------------------------------------------------------------|
B|----------------------------------------------------------------------------------------------------------------------------|
G|----------------------------------------------------------------------------------------------------------------------------|
D|-10--10/13-13----6-6-6-6/8\6----10--10/13-13----6-6-6-6/8\6----10--10/13-13----6-6-6-6/8\6-----10--10/13-13----6-6-6-6/8\6--|
A|-10--10/13-13----6-6-6-6/8\6----10--10/13-13----6-6-6-6/8\6----10--10/13-13----6-6-6-6/8\6-----10--10/13-13----6-6-6-6/8\6--|
D|-10--10/13-13----6-6-6-6/8\6----10--10/13-13----6-6-6-6/8\6----10--10/13-13----6-6-6-6/8\6-----10--10/13-13----6-6-6-6/8\6--|
[ Tab from: http://www.guitaretab.com/r/race-the-sun/94723.html ]
Chorus
e|------------------------------------------------|
B|------------------------------------------------|
G|------------------------------------------------|
D|---10-----8-8-8-----1----6-6-6------------------|  x2
A|---10-----8-8-8-----1----6-6-6------------------|
D|---10-----8-8-8-----1----6-6-6------------------|
pm             .                   ..

Verse 3
e|----------------------------------------------------------------------------------------------------------------|
B|----------------------------------------------------------------------------------------------------------------|
G|----------------------------------------------------------------------------------------------------------------|
D|--6-6-6-6--x-4---66--66--66--666-10-10-8-8-66--66-66-666-10-10-8-8-66--66--66--666-10-10-8-8-6666666666666666---|
A|--6-6-6-6---------66--66--66--666-10-10-8-8-66--66-66-666-10-10-8-8-66--66--66--666-10-10-8-8-6666666666666666--|
D|--6-6-6-6---------66--66--66--666-10-10-8-8-66--66-66-666-10-10-8-8-66--66--66--666-10-10-8-8-6666666666666666--|
pm  .  .  .  .            ..    ..    ..    . . .  .    .   .  .  ..    ..   ..   ...    .    .  .  .   ..    ..    ..

Prechorus
e|----------------------------------------------------------------------------------------------------------------------------|
B|----------------------------------------------------------------------------------------------------------------------------|
G|----------------------------------------------------------------------------------------------------------------------------|
D|-10--10/13-13----6-6-6-6/8\6----10--10/13-13----6-6-6-6/8\6----10--10/13-13----6-6-6-6/8\6-----10--10/13-13----6-6-6-6/8\6--|
A|-10--10/13-13----6-6-6-6/8\6----10--10/13-13----6-6-6-6/8\6----10--10/13-13----6-6-6-6/8\6-----10--10/13-13----6-6-6-6/8\6--|
D|-10--10/13-13----6-6-6-6/8\6----10--10/13-13----6-6-6-6/8\6----10--10/13-13----6-6-6-6/8\6-----10--10/13-13----6-6-6-6/8\6--|


Chorus
e|----------------------------------------------------------------|
B|----------------------------------------------------------------|
G|----------------------------------------------------------------|
D|---10-----8-8-8-----1----6-6-6----x4----------------------------|
A|---10-----8-8-8-----1----6-6-6----------------------------------|
D|---10-----8-8-8-----1----6-6-6----------------------------------|
pm             .                    .

Solo
e|----------------------------------------------------------------------------------End On--|
B|-------------------------------------------------------------------------------------16---|
G|------------15--------------13--------------12------------10---------X19.-------15--------|
D|--------13----13--------11----11-------10---10--------8----8-------------------13---------|
A|-----13---------------11--------------10--------------8---------------------------13------|
D|------------------------------------------------------------------------------------------|

Chorus
e|----------------------------------------------------------------|
B|----------------------------------------------------------------|
G|----------------------------------------------------------------|
D|---10-----8-8-8-----1----6-6-6----x8----------------------------|
A|---10-----8-8-8-----1----6-6-6----------------------------------|
D|---10-----8-8-8-----1----6-6-6----------------------------------|
pm             .                    .


Listen to match rhythm