Song name
# A B C D E F G H I J K L M N O P Q R S T U V W X Y Z

Racer X - Fire Of Rock drum

                              Fire Of Rock                                   


                                                                         Racer X
Scott



     W                   W                   W                 
C||-------------------|-------------------|-------------------|
C||-------------------|-------------------|-------------------|
C||-------------------|-------------------|-------------------|
C||-------------------|-------------------|-------------------|
C||-------------------|-------------------|-------------------|
C||-------------------|-------------------|-------------------|


  W                    Q    Q    H           W                 
-------------------|----------------------|-------------------|
-------------------|--38------------------|-------------------|
-------------------|----------------------|-------------------|
-------------------|----------------------|-------------------|
-------------------|----------------------|-------------------|
-------------------|----------------------|-------------------|


  W                   W                   W                   W                 
-------------------|-------------------|-------------------|-------------------|
-------------------|-------------------|-------------------|-------------------|
-------------------|-------------------|-------------------|-------------------|
-------------------|-------------------|-------------------|-------------------|
-------------------|-------------------|-------------------|-------------------|
-------------------|-------------------|-------------------|-------------------|


  W                   W                    Q     E   E   E.   S  Q     
-------------------|-------------------|--35--------35-------35-------|
-------------------|-------------------|--------38---L----------38----|
-------------------|-------------------|--57----42---L--42----L-42----|
-------------------|-------------------|------------------------------|
-------------------|-------------------|------------------------------|
-------------------|-------------------|------------------------------|


   Q     Q     E   S  S  Q        E.   S  E   E   E.   S  Q     
--35----------35--35-35-------|--35---35-----35-------35-------|
--------38--------------38----|----------38---L----------38----|
--42----42----42---L--L-42----|--42----L-42---L--42----L-42----|
------------------------------|--------------------------------|
------------------------------|--------------------------------|
------------------------------|--------------------------------|


   Q     Q     E.   S  Q        Q     E   E   E.   S  Q     
--35---------------35-------|--35--------35-------35-------|
--------38------------38----|--------38--------------38----|
--42----42----42----L-42----|--42----42------42----L-42----|
----------------------------|------------------------------|
----------------------------|------------------------------|
----------------------------|------------------------------|


   Q     Q     E.   S  Q        E.   S  E   E   E.   S  Q     
--35----------35---35-------|--35---35-----35-------35-------|
--------38------------38----|----------38---L----------38----|
--42----42----42----L-42----|--42----L-42---L--42----L-42----|
----------------------------|--------------------------------|
----------------------------|--------------------------------|
----------------------------|--------------------------------|


   Q     Q     E.   S  Q        Q     E   E  E   E   Q     
--35---------------35-------|--35--------35-----35--------|
--------38------------38----|--------38-------------38----|
--42----42----42----L-42----|--57--------49---------42----|
----------------------------|-----------------------------|
----------------------------|-----------------------------|
----------------------------|-----------------------------|


   E   E   E   E   E   E   E   E      E.   S  E   E   E.   S  Q     
--35--35------35--35--35------35--|--35---35-----35-------35-------|
----------38---L----------38---L--|----------38---L----------42----|
--42------42---L--42---L--42---L--|--42----L-42---L--42----L-38----|
----------------------------------|--------------------------------|
----------------------------------|--------------------------------|
----------------------------------|--------------------------------|


   E   E   E   E   E   E   E   E      E.   S  E   E   E   S  S  Q     
--35--35------35--35--35------35--|--35---35-----35------35-35-------|
----------38---L----------38---L--|----------38---L------------38----|
--42---L--42---L--42---L--42---L--|--42----L-42---L--42---L--L-42----|
----------------------------------|----------------------------------|
----------------------------------|----------------------------------|
----------------------------------|----------------------------------|


   E   E   E   E   E   E   E   E      E.   S  E   E   E.   S  Q     
--35--35------35--35--35------35--|--35---35-----35-------35-------|
----------38---L----------38---L--|----------38---L----------38----|
--42---L--42---L--42---L--42---L--|--42----L-42---L--42----L-42----|
----------------------------------|--------------------------------|
----------------------------------|--------------------------------|
----------------------------------|--------------------------------|


   E   E   Q     E   E   Q        Q     E   E  E   E   Q     
--35--35--------35--35--------|--35--------35-----35--------|
----------38------------38----|--------38-------------38----|
--42---L--42----42---L--42----|--57--------49---------42----|
------------------------------|-----------------------------|
------------------------------|-----------------------------|
------------------------------|-----------------------------|


   E   E   E   E   E   E   E   E      E.   S  E   E   E.   S  Q     
--35--35------35--35--35------35--|--35---35-----35-------35-------|
----------38---L----------38------|----------38---L----------38----|
--42---L--42---L--42---L--42---L--|--42----L-42---L--42----L-42----|
----------------------------------|--------------------------------|
----------------------------------|--------------------------------|
----------------------------------|--------------------------------|


   E   E   E   E   E   E   E   E      E.   S  E   E   E   S  S  Q     
--35--35------35--35--35------35--|--35---35-----35------35-35-------|
----------38---L----------38------|----------38---L------------38----|
--42---L--42---L--42---L--42---L--|--42----L-42---L--42---L----42----|
----------------------------------|----------------------------------|
----------------------------------|----------------------------------|
----------------------------------|----------------------------------|


   E   E   E   E   E   E   E   E      E.   S  E   E   E.   S  Q     
--35--35------35--35--35------35--|--35---35-----35-------35-------|
----------38---L----------38------|----------38---L----------38----|
--42---L--42---L--42---L--42---L--|--42----L-42---L--42----L-42----|
----------------------------------|--------------------------------|
----------------------------------|--------------------------------|
----------------------------------|--------------------------------|


   E   E   Q     E   E   S  S  S  S     Q     E   E   E   E   Q     
--35--35--------35--35--------------|--35--------35------35--------|
----------38------------38-38-38-38-|--------38---L----------38----|
--42---L--42----42---L--------------|--53----53---L--53---L--53----|
------------------------------------|------------------------------|
------------------------------------|------------------------------|
------------------------------------|------------------------------|


   Q     E   E   E   E   Q        Q     E   E   E   E   Q     
--35--------35------35--------|--35--------35------35--------|
--------38---L----------38----|--------38---L----------38----|
--53----53---L--53---L--53----|--53----53---L--53---L--53----|
------------------------------|------------------------------|
------------------------------|------------------------------|
------------------------------|------------------------------|


   Q     E   E   E   E   E   E      Q     E   E   E   E   Q     
--35--------35------35------35--|--35--------35------35--------|
--------38---L----------38---L--|--------38---L----------38----|
--53----53---L--53---L--53---L--|--57----53---L--53---L--53----|
--------------------------------|------------------------------|
--------------------------------|------------------------------|
--------------------------------|------------------------------|


   Q     E   E   E   E   Q        Q     E   E   E   E   E   E   
--35--------35------35--------|--35----35----------35--35---L--|
--------38---L----------38----|------------38--------------38--|
--53----53---L--53---L--53----|--49----42------42---L--42------|
------------------------------|--------------------------------|
------------------------------|--------------------------------|
------------------------------|--------------------------------|


   E   E   E   E   E   S  S  E   E      E.   S  E   E   E.   S  Q     
------35--35---L------35-35-----35--|--35---35-----35-------35-------|
--------------38------------38---L--|----------38---L----------38----|
--42---L--42------42---L--L---------|--57----L-42---L--42----L-42----|
------------------------------------|--------------------------------|
------------------------------------|--------------------------------|
------------------------------------|--------------------------------|


   E.   S  E   E   Q     Q        E.   S  E   E   E.   S  Q     
--35---35-----35--35----------|--35---35-----35-------35-------|
----------38---L--------38----|----------38---L----------38----|
--42----L-42---L--42----42----|--42----L-42---L--42----L-42----|
------------------------------|--------------------------------|
------------------------------|--------------------------------|
------------------------------|--------------------------------|


   E   E   E   E   E   E   E   E      E.   S  E   E   E.   S  Q     
--35--35------35------35------35--|--35---35-----35-------35-------|
----------38---L----------38---L--|----------38---L----------38----|
--42---L--42---L--42---L--42---L--|--42----L-42---L--42----L-42----|
----------------------------------|--------------------------------|
----------------------------------|--------------------------------|
----------------------------------|--------------------------------|


   E   E   E   E   E   E   E   E      Q     E   E   Q     E   E   
--35--35------35------35------35--|--------35--35--------35--35--|
----------38---L----------38---L--|--38------------38------------|
--42---L--42---L--42---L--42---L--|--57----42---L--42----42---L--|
----------------------------------|------------------------------|
----------------------------------|------------------------------|
----------------------------------|------------------------------|


   Q     E   E   Q     E   S  S     Q     E   E  E   E   Q     
--------35--35--------35--------|--35--------35-----35--------|
--38------------38--------38-38-|--------38-------------38----|
--49----42---L--42----42--------|--57--------49---------42----|
--------------------------------|-----------------------------|
--------------------------------|-----------------------------|
--------------------------------|-----------------------------|


   E   E   E   E   E   E   E   E      E   E   E   E   E.   S  Q     
--35--35------35--35--35------35--|--35--35------35-------35-------|
----------38---L----------38---L--|----------38---L----------42----|
--42------42---L--42---L--42---L--|--42---L--42---L--42----L-38----|
----------------------------------|--------------------------------|
----------------------------------|--------------------------------|
----------------------------------|--------------------------------|


   E   E   E   E   E   E   E   E      E.   S  E   E   E   S  S  Q     
--35--35------35--35--35------35--|--35---35-----35------35-35-------|
----------38---L----------38---L--|----------38---L------------38----|
--42---L--42---L--42---L--42---L--|--42----L-42---L--42---L--L-42----|
----------------------------------|----------------------------------|
----------------------------------|----------------------------------|
----------------------------------|----------------------------------|


   E   E   E   E   E   E   E   E      E.   S  E   E   E.   S  Q     
--35--35------35--35--35------35--|--35---35-----35-------35-------|
----------38---L----------38---L--|----------38---L----------38----|
--42---L--42---L--42---L--42---L--|--42----L-42---L--42----L-42----|
----------------------------------|--------------------------------|
----------------------------------|--------------------------------|
----------------------------------|--------------------------------|


   E   E   Q     E   S  S  S  S  S  S     Q     E   E  E   E   Q     
--35--35--------35---L--L-------------|--35--------35-----35--------|
----------38----38--38-38-38-38-38-38-|--------38-------------38----|
--42---L--42--------------------------|--57--------49---------42----|
--------------------------------------|-----------------------------|
--------------------------------------|-----------------------------|
--------------------------------------|-----------------------------|


   E   E   E   E   E   E   E   E      E.   S  E   E   E.   S  Q     
--35--35------35--35--35------35--|--35---35-----35-------35-------|
----------38---L----------38------|----------38---L----------38----|
--42---L--42---L--42---L--42---L--|--42----L-42---L--42----L-42----|
----------------------------------|--------------------------------|
----------------------------------|--------------------------------|
----------------------------------|--------------------------------|


   E   E   E   E   E   E   E   E      E.   S  E   E   E   S  S  Q     
--35--35------35--35--35------35--|--35---35-----35------35-35-------|
----------38---L----------38------|----------38---L------------38----|
--42---L--42---L--42---L--42---L--|--42----L-42---L--42---L----42----|
----------------------------------|----------------------------------|
----------------------------------|----------------------------------|
----------------------------------|----------------------------------|


   E   E   E   E   E   E   E   E      E.   S  E   E   E.   S  Q     
--35--35------35--35--35------35--|--35---35-----35-------35-------|
----------38---L----------38------|----------38---L----------38----|
--42---L--42---L--42---L--42---L--|--42----L-42---L--42----L-42----|
----------------------------------|--------------------------------|
----------------------------------|--------------------------------|
----------------------------------|--------------------------------|


   E   E   Q     E   E   S  S  S  S     Q     E   E   E   E   Q     
--35--35--------35--35--------------|--35--------35------35--------|
----------38------------38-38-38-38-|--------38---L----------38----|
--42---L--42----42---L--------------|--53----53---L--53---L--53----|
------------------------------------|------------------------------|
------------------------------------|------------------------------|
------------------------------------|------------------------------|


   Q     E   E   E   E   Q        Q     E   E   E   E   Q     
--35--------35------35--------|--35--------35------35--------|
--------38---L----------38----|--------38---L----------38----|
--53----53---L--53---L--53----|--53----53---L--53---L--53----|
------------------------------|------------------------------|
------------------------------|------------------------------|
------------------------------|------------------------------|


   Q     E   E   E   E   E   E      Q     E   E   E   E   Q     
--35--------35------35------35--|--35--------35------35--------|
--------38---L----------38---L--|--------38---L----------38----|
--53----53---L--53---L--53---L--|--57----53---L--53---L--53----|
--------------------------------|------------------------------|
--------------------------------|------------------------------|
--------------------------------|------------------------------|


   Q     E   E   E   E   Q        Q     E   E   E   E   E   E   
--35--------35------35--------|--35----35----------35--35---L--|
--------38---L----------38----|------------38--------------38--|
--53----53---L--53---L--53----|--49----42------42---L--42------|
------------------------------|--------------------------------|
------------------------------|--------------------------------|
------------------------------|--------------------------------|


   E   E   E   E   E   S  S  E   E      E.   S  E   E   E.   S  Q     
------35--35---L------35-35-----35--|--35---35-----35-------35-------|
--------------38------------38---L--|----------38---L----------38----|
--42---L--42------42---L--L---------|--57----L-42---L--42----L-42----|
------------------------------------|--------------------------------|
------------------------------------|--------------------------------|
------------------------------------|--------------------------------|


   E.   S  E   E   Q     Q        E.   S  E   E   E.   S  Q     
--35---35-----35--35----------|--35---35-----35-------35-------|
----------38---L--------38----|----------38---L----------38----|
--42----L-42---L--42----42----|--42----L-42---L--42----L-42----|
------------------------------|--------------------------------|
------------------------------|--------------------------------|
------------------------------|--------------------------------|


   E   E   E   E   E   E   E   E      E.   S  E   E   E.   S  Q     
--35--35------35------35------35--|--35---35-----35-------35-------|
----------38---L----------38---L--|----------38---L----------38----|
--42---L--42---L--42---L--42---L--|--42----L-42---L--42----L-42----|
----------------------------------|--------------------------------|
----------------------------------|--------------------------------|
----------------------------------|--------------------------------|


   E   E   E   E   E   E   E   E      Q     E   E   Q     E   E   
--35--35------35------35------35--|--------35--35--------35--35--|
----------38---L----------38---L--|--38------------38------------|
--42---L--42---L--42---L--35---L--|--57----42---L--42----42---L--|
----------------------------------|------------------------------|
----------------------------------|------------------------------|
----------------------------------|------------------------------|


   Q     E   E   Q     E   S  S     E.   S  E   E   E.   S  Q     
--------35--35--------35--------|--35---35-----35-------35-------|
--38------------38--------38-38-|----------38---L----------38----|
--49----42---L--42----42--------|--57----L-42---L--42----L-42----|
--------------------------------|--------------------------------|
--------------------------------|--------------------------------|
--------------------------------|--------------------------------|


   E.   S  E   E   Q     Q        E.   S  E   E   E.   S  Q     
--35---35-----35--35----------|--35---35-----35-------35-------|
----------38---L--------38----|----------38---L----------38----|
--42----L-42---L--42----42----|--57----L-42---L--42----L-42----|
------------------------------|--------------------------------|
------------------------------|--------------------------------|
------------------------------|--------------------------------|


   E   E   E   E   E   E   E   E      E.   S  E   E   E.   S  Q     
--35--35------35------35------35--|--35---35-----35-------35-------|
----------38---L----------38---L--|----------38---L----------38----|
--42---L--42---L--42---L--42---L--|--57----L-42---L--42----L-42----|
----------------------------------|--------------------------------|
----------------------------------|--------------------------------|
----------------------------------|--------------------------------|


   E   E   E   E   E   E   E   E      Q     E   E   Q     E   E   
--35--35------35------35------35--|--------35--35--------35--35--|
----------38---L----------38---L--|--38------------38------------|
--42---L--42---L--42---L--42---L--|--49----42---L--42----42---L--|
----------------------------------|------------------------------|
----------------------------------|------------------------------|
----------------------------------|------------------------------|


   Q     E   E   Q     Q        Q     Q    Q     Q     
--------35--35--------35----|--35---------------------|
--38------------38----------|-------------------------|
--49----42---L--42----42----|--38----44---------44----|
----------------------------|-------------------------|
----------------------------|-------------------------|
----------------------------|-------------------------|


  Q     Q     Q     Q        Q     E   E   E   E   Q     
-------------------------|--35--------35------35--------|
-------------------38----|--------38---L----------38----|
-------44----44----------|--57----42---L--42---L--49----|
-------------------------|------------------------------|
-------------------------|------------------------------|
-------------------------|------------------------------|


   E   E   Q     E   E   E   E      Q     E   E   E   E   Q     
--35--35--------35--35------35--|--35--------35------35--------|
----------38------------38---L--|--------38---L----------38----|
--42---L--42----42---L--42---L--|--57----42---L--42---L--49----|
--------------------------------|------------------------------|
--------------------------------|------------------------------|
--------------------------------|------------------------------|


   E   S  S  E   E   E   E   E   E      Q     E   E   E   E   Q     
--35--35-35-----35------35------35--|--35--------35------35--------|
------------38---L----------38---L--|--------38---L----------38----|
--42---L--L-42---L--42---L--35---L--|--57----42---L--42---L--49----|
------------------------------------|------------------------------|
------------------------------------|------------------------------|
------------------------------------|------------------------------|


   E   S  S  E   E   E   S  S  E   S  S     Q     Q     Q     Q     
--35--35-35-----35--35--35-35-----------|--35----------------------|
------------38---L------------38--38-38-|--38----44----44----44----|
--42---L--L-42---L--42---L--L-42--------|--------------------------|
----------------------------------------|--------------------------|
----------------------------------------|--------------------------|
----------------------------------------|--------------------------|


   E.   E.   E   E.   E.   E      Q     E   E   E   S  S  Q     
--35---35---35--35---35---35--|--35--------35------35-35-------|
------------------------------|--------38---L------------38----|
--57---55---49--57---55---49--|--42----42---L--42---L--L-42----|
------------------------------|--------------------------------|
------------------------------|--------------------------------|
------------------------------|--------------------------------|


   E   S  S  Q     E   S  S  E   E     E   E   Q     E   S  S  Q     
--35--35-35-----------35-35-----35--|-----35--------35--35-35-------|
------------38------------------57--|---------38--------------38----|
--42---L--L-42----42---L--L-38------|---------42----42---L--L-42----|
------------------------------------|-------------------------------|
------------------------------------|-------------------------------|
------------------------------------|-------------------------------|


   E   S  S  Q     E   S  S  S  S  S  S     Q     E   E   E   S  S  Q     
--35--35-35-------35--35-35-------------|--35--------35------35-35-------|
------------38--------------38-38-38-38-|--------38---L------------38----|
--42---L--L-42----42---L--L-------------|--57----42---L--42---L--L-42----|
----------------------------------------|--------------------------------|
----------------------------------------|--------------------------------|
----------------------------------------|--------------------------------|


   E   S  S  Q     E   S  S  E   E      Q     Q     E   S  S  E   E   
--35--35-35-------35--35-35-----35--|--35----------35--35-35-----35--|
------------38--------------38------|--------38--------------38---L--|
--42---L--L-42----42---L--L-----49--|--------42----42---L--L-42---L--|
------------------------------------|--------------------------------|
------------------------------------|--------------------------------|
------------------------------------|--------------------------------|


                                       |--6--|  |--6--|  
   S  S  S  S  S  S  S  S  S  S  S  S  S  S  S  S  S  S  
--35--L--L--L-35--L--L--L-35--L--L--L-35--L--L--L--L--L-|
--38-38-38-38-38-38-38-38-38-38-38-38-38-38-38-38-38-38-|
--------------------------------------------------------|
--------------------------------------------------------|
--------------------------------------------------------|
--------------------------------------------------------|


   Q     Q    H           W                   W                 
--35-------------------|-------------------|-------------------|
--38----44-------------|-------------------|-------------------|
-----------------------|-------------------|-------------------|
-----------------------|-------------------|-------------------|
-----------------------|-------------------|-------------------|
-----------------------|-------------------|-------------------|


  W                   W                   W                   W                 
-------------------|-------------------|-------------------|-------------------|
-------------------|-------------------|-------------------|-------------------|
-------------------|-------------------|-------------------|-------------------|
-------------------|-------------------|-------------------|-------------------|
-------------------|-------------------|-------------------|-------------------|
-------------------|-------------------|-------------------|-------------------|


  W                    Q     E   E   E.   S  Q     
-------------------|--35--------35-------35-------|
-------------------|--------38---L----------38----|
-------------------|--57----42---L--42----L-42----|
-------------------|------------------------------|
-------------------|------------------------------|
-------------------|------------------------------|


   Q     Q     E   S  S  Q        E.   S  E   E   E.   S  Q     
--35----------35--35-35-------|--35---35-----35-------35-------|
--------38--------------38----|----------38---L----------38----|
--42----42----42---L--L-42----|--42----L-42---L--42----L-42----|
------------------------------|--------------------------------|
------------------------------|--------------------------------|
------------------------------|--------------------------------|


   Q     Q     E.   S  Q        E.   S  E   E   E.   S  Q     
--35---------------35-------|--35---35-----35-------35-------|
--------38------------38----|----------38---L----------38----|
--42----42----42----L-42----|--42----L-42---L--42----L-42----|
----------------------------|--------------------------------|
----------------------------|--------------------------------|
----------------------------|--------------------------------|


   Q     Q     E.   S  Q        E.   S  E   E   E.   S  Q     
--35---------------35-------|--35---35-----35-------35-------|
--------38------------38----|----------38---L----------38----|
--42----42----42----L-42----|--42----L-42---L--42----L-42----|
----------------------------|--------------------------------|
----------------------------|--------------------------------|
----------------------------|--------------------------------|


   Q     E.   S  Q     Q        Q     E   E  E   E   Q     
--35------------35----------|--35--------35-----35--------|
--------38---47-------------|--------38-------------38----|
--42----42------------44----|--57--------49---------42----|
----------------------------|-----------------------------|
----------------------------|-----------------------------|
----------------------------|-----------------------------|


   E   E   E   E   E   E   E   E      E   E   E   E   E.   S  Q     
--35--35------35--35--35------35--|--35--35------35-------35-------|
----------38---L----------38---L--|----------38---L----------42----|
--42------42---L--42---L--42---L--|--42---L--42---L--42----L-------|
----------------------------------|--------------------------------|
----------------------------------|--------------------------------|
----------------------------------|--------------------------------|


   E   E   E   E   E   E   E   E      E.   S  E   E   E   S  S  Q     
--35--35------35--35--35------35--|--35---35-----35------35-35-------|
----------38---L----------38---L--|----------38---L------------38----|
--42---L--42---L--42---L--42---L--|--42----L-42---L--42---L--L-42----|
----------------------------------|----------------------------------|
----------------------------------|----------------------------------|
----------------------------------|----------------------------------|


   E   E   E   E   E   E   E   E      E.   S  E   E   E.   S  Q     
--35--35------35--35--35------35--|--35---35-----35-------35-------|
----------38---L----------38---L--|----------38---L----------38----|
--42---L--42---L--42---L--42---L--|--42----L-42---L--42----L-42----|
----------------------------------|--------------------------------|
----------------------------------|--------------------------------|
----------------------------------|--------------------------------|


   S  S  S  S  S  S  S  S  S  S  S  S  S  S  S  S  
--35--L--L--L-35-35-------------35-35-------------|
--38-38-38-38-------38-38-47-47-------38-38-38-38-|
--------------------------------------------------|
--------------------------------------------------|
--------------------------------------------------|
--------------------------------------------------|


   Q     E   E  E   E   Q        E   E   E   E   E   E   E   E   
--35--------35-----35--------|--35--35------35--35--35------35--|
--------38-------------38----|----------38---L----------38------|
--57--------49---------42----|--42---L--42---L--42---L--42---L--|
-----------------------------|----------------------------------|
-----------------------------|----------------------------------|
-----------------------------|----------------------------------|


   E.   S  E   E   E.   S  Q        E   E   E   E   E   E   E   E   
--35---35-----35-------35-------|--35--35------35--35--35------35--|
----------38---L----------38----|----------38---L----------38------|
--42----L-42---L--42----L-42----|--42---L--42---L--42---L--42---L--|
--------------------------------|----------------------------------|
--------------------------------|----------------------------------|
--------------------------------|----------------------------------|


   E.   S  E   E   E   S  S  Q        E   E   E   E   E   E   E   E   
--35---35-----35------35-35-------|--35--35------35--35--35------35--|
----------38---L------------38----|----------38---L----------38------|
--42----L-42---L--42---L----42----|--42---L--42---L--42---L--42---L--|
----------------------------------|----------------------------------|
----------------------------------|----------------------------------|
----------------------------------|----------------------------------|


   E.   S  E   E   E.   S  Q        E   S  S  E   E   S  S  E   E   S  S  
--35---35-----35-------35-------|--35---L--L-35------------35------------|
----------38---L----------38----|------38-38-----38--38-38---------38-38-|
--42----L-42---L--42----L-42----|--42--------42--42--------42--42--------|
--------------------------------|----------------------------------------|
--------------------------------|----------------------------------------|
--------------------------------|----------------------------------------|


   Q     E   E   E   E   Q        Q     E   E   E   E   Q     
--35--------35------35--------|--35--------35------35--------|
--------38---L----------38----|--------38---L----------38----|
--53----53---L--53---L--53----|--53----53---L--53---L--53----|
------------------------------|------------------------------|
------------------------------|------------------------------|
------------------------------|------------------------------|


   Q     E   E   E   E   Q        Q     E   E   E   E   E   E   
--35--------35------35--------|--35--------35------35------35--|
--------38---L----------38----|--------38---L----------38---L--|
--53----53---L--53---L--53----|--53----53---L--53---L--53---L--|
------------------------------|--------------------------------|
------------------------------|--------------------------------|
------------------------------|--------------------------------|


   Q     E   E   E   E   Q        Q     E   E   E   E   Q     
--35--------35------35--------|--35--------35------35--------|
--------38---L----------38----|--------38---L----------38----|
--57----53---L--53---L--53----|--53----53---L--53---L--53----|
------------------------------|------------------------------|
------------------------------|------------------------------|
------------------------------|------------------------------|


   Q     E   E   E   E   E   E      E   E   E   E   E   S  S  E   E   
--35----35----------35--35---L--|------35--35---L------35-35-----35--|
------------38--------------38--|--------------38------------38---L--|
--49----42------42---L--42------|--42---L--42------42---L--L---------|
--------------------------------|------------------------------------|
--------------------------------|------------------------------------|
--------------------------------|------------------------------------|


   E.   S  E   E   E.   S  Q        E.   S  E   E   Q     Q     
--35---35-----35-------35-------|--35---35-----35--35----------|
----------38---L----------38----|----------38---L--------38----|
--57----L-42---L--42----L-42----|--42----L-42---L--42----42----|
--------------------------------|------------------------------|
--------------------------------|------------------------------|
--------------------------------|------------------------------|


   E.   S  E   E   E.   S  Q        E   E   E   E   E   E   E   E   
--35---35-----35-------35-------|--35--35------35------35------35--|
----------38---L----------38----|----------38---L----------38---L--|
--42----L-42---L--42----L-42----|--42---L--42---L--42---L--42---L--|
--------------------------------|----------------------------------|
--------------------------------|----------------------------------|
--------------------------------|----------------------------------|


   E.   S  E   E   E.   S  Q        E   E   E   E   E   E   E   E   
--35---35-----35-------35-------|--35--35------35------35------35--|
----------38---L----------38----|----------38---L----------38---L--|
--42----L-42---L--42----L-42----|--42---L--42---L--42---L--42---L--|
--------------------------------|----------------------------------|
--------------------------------|----------------------------------|
--------------------------------|----------------------------------|


   Q     E   E   Q     E   E      Q     E   E   Q     E   S  S  
--------35--35--------35--35--|--------35--35--------35--------|
--38------------38------------|--38------------38--------38-38-|
--57----42---L--42----42---L--|--49----42---L--42----42--------|
------------------------------|--------------------------------|
------------------------------|--------------------------------|
------------------------------|--------------------------------|


     E.   S  E   E   E.   S  Q        E.   S  E   E   Q     Q     
|---35---35-----35-------35-------|--35---35-----35--35----------|
|-----------38---L----------38----|----------38---L--38----38----|
|*--57----L-42---L--42----L-42----|--42----L-42---L--------42----|
|*--------------------------------|------------------------------|
|---------------------------------|------------------------------|
|---------------------------------|------------------------------|


   E.   S  E   E   E.   S  Q        E   E   E   E   E   E   E   E   
--35---35-----35-------35-------|--35--35------35------35------35--|
----------38---L----------38----|----------38---L----------38---L--|
--57----L-42---L--42----L-42----|--42---L--42---L--42---L--42---L--|
--------------------------------|----------------------------------|
--------------------------------|----------------------------------|
--------------------------------|----------------------------------|


   E.   S  E   E   E.   S  Q        E   E   E   E   E   E   E   E   
--35---35-----35-------35-------|--35--35------35------35------35--|
----------38---L----------38----|----------38---L----------38---L--|
--57----L-42---L--42----L-42----|--42---L--42---L--42---L--42---L--|
--------------------------------|----------------------------------|
--------------------------------|----------------------------------|
--------------------------------|----------------------------------|


   Q     E   E   Q     E   E      Q     E   E   E.   E.   E     
--------35--35--------35--35--|--35----35--35--35---35---35---||
--38------------38------------|--38---------------------------||
--49----42---L--42----42---L--|--57----42---L--49---55---57--*||
------------------------------|------------------------------*||
------------------------------|-------------------------------||
------------------------------|-------------------------------||


   E.   S  E   E   E.   S  Q        E   E   E   E   E   E   E   E   
--35---35-----35-------35-------|--35--35------35------35------35--|
----------38---L----------38----|----------38---L----------38---L--|
--57----L-42---L--42----L-42----|--42---L--42---L--42---L--42---L--|
--------------------------------|----------------------------------|
--------------------------------|----------------------------------|
--------------------------------|----------------------------------|


   E   E   E   E   E   E   E   E      E   E   E   E   E   E   E   E   
------35--35--35------35--35--35--|------35--35--35------35--35--35--|
--38--------------38---L----------|--38--------------38---L----------|
--49------42---L--42---L--42---L--|--57------42---L--42---L--42---L--|
----------------------------------|----------------------------------|
----------------------------------|----------------------------------|
----------------------------------|----------------------------------|


   E   E   E   E   E   E   E   E      E   E   E   E   E   E   E   E   
------35--35--35------35--35--35--|------35--35--35------35--35--35--|
--38--------------38---L----------|--38--------------38---L----------|
--49------42---L--42---L--42---L--|--57------42---L--42---L--42---L--|
----------------------------------|----------------------------------|
----------------------------------|----------------------------------|
----------------------------------|----------------------------------|


   E   E   E   E   E   E   E   E      E   E   E   E   E   E   E   E   
------35--35--35------35--35--35--|------35--35--35------35--35--35--|
--38--------------38---L----------|--38---L----------38---L--38---L--|
--49------42---L--42---L--42---L--|--57---L--42---L--42---L----------|
----------------------------------|----------------------------------|
----------------------------------|----------------------------------|
----------------------------------|----------------------------------|


   Q     Q     Q     Q        Q     Q     Q     Q     
--35----------------------|--35----------------------|
--------------------------|--------------------------|
--------44----44----44----|--------44----44----44----|
--------------------------|--------------------------|
--------------------------|--------------------------|
--------------------------|--------------------------|


   Q     Q     Q     Q        Q     Q     Q     Q        Q    Q    H         
--35----------------------|--35----------------------|--35------------------|
--------------------------|--------------------------|----------------------|
--------44----44----44----|--------44----44----44----|--57------------------|
--------------------------|--------------------------|----------------------|
--------------------------|--------------------------|----------------------|
--------------------------|--------------------------|----------------------|


  W                  
-------------------||
-------------------||
-------------------||
-------------------||
-------------------||
-------------------||

Drums Legend:
---------------
38...Snare
40...Electric Snare
36...Bass Drum
35...Acoustic Bass Drum
41...Low Floor Tom
43...High Floor Tom
45...Low Tom
47...Low-Mid Tom
48...Hi-Mid Tom

42...Closed Hi Hat
44...Pedal Hi Hat
46...Open Hi Hat
51...Ride Cymbal 1
59...Ride Cymbal 2
49...Crash Cymbal 1
52...Chinese Cymbal
57...Crash Cymbal 2
55...Splash Cymbal


Duration Legend
---------------
W - whole
H - half
Q - quarter
E - 8th
S - 16th
T - 32nd
X - 64th
. - note dotted
|-n-|  - n-tuplets
Tap to rate this tab
# A B C D E F G H I J K L M N O P Q R S T U V W X Y Z