Song name
# A B C D E F G H I J K L M N O P Q R S T U V W X Y Z

Racetrack - A Song About Driving tab

Tabbed by:Oby
Email:Xtralanked@yahoo.com

Tuning:Standard

Intro/Verse/Chorus

e|-----------------|
B|-----------------|
G|-----9---7---4---|
D|-7---9---7---4---|
A|-7---7---5---2---|
E|-5---------------|
 
This is the part near the end:

e|-----------------|
B|-----------------|
G|-----9---11--7---|
D|-7---9---11--7---|
A|-7---7---9---5---|
E|-5---------------|

Tap to rate this tab
 
# A B C D E F G H I J K L M N O P Q R S T U V W X Y Z