Song name
# A B C D E F G H I J K L M N O P Q R S T U V W X Y Z

Rachael Yamagata - Worn Me Down tab

----------------
Worn Me Down
----------------

If playing solo, is good to play some harmonica along with it. One live version I've
has very nice violin along with it. Recreate that with straight Harp in A! It'll rock! The
is from another tab that says its tuned 1/2 step lower, but if you look at the tab, it 
in the A position. The A key works when I play it along with a live version that is
a promo CD from one of the radio stations here in Chicago (Rache's home base). I don't
any guitar solo with it 'cuz I am busy playin' the harp. It's a great "power chord" song.

Standard Tuning

Guitar 1: Chords
Guitar 2: Riff

Chords:
A......577655
E......022100
F#m....244222
D......X57775
E......X79997

Intro: A E F#m D X4
Riff

E|----------------------------------------------------|
B|----------------------------------------------------|
G|----5-------5-6-6h5-------5---------5-5h6-8h10------|
D|-5h6-65--5h6-6-------5h6p5-65--5h6p5-6--------------|
A|----------------------------------------------------|
E|----------------------------------------------------|

VERSE:
Guitar 1:
A          E
Gone, she's gone
    F#m          D
How do you feel about it
A            E
That's what I thought
       F#m            D
You're real torn up about it
      A           E
And I wish you the best
    F#m            D
But I could do without it
      A      E         F#m      D
And I will, because you've worn me down
      A      E         F#m      D
Oh, I will, because you've worn me down

CHORUS:
Guitar 1:
        A          E
Worn me down like a road
      F#m             D
I did everything you told
        A         E
Worn me down to my knees
       F#m           D
I did everything to please
        A         E     F#m           D
But you can't stop thinking about her
        A         E     F#m           D
No, you can't stop thinking about her

Guitar 2:
But you can't stop thinking about her...
E|----------------------------------------------------|
B|----------------------------------------------------|
G|----5-------5-6-6h5-------5---------5-5h6-8h10------|
D|-5h6-65--5h6-6-------5h6p5-65--5h6p5-6--------------|
A|----------------------------------------------------|
E|----------------------------------------------------|


VERSE 2:
Guitar 1:
           A            E
And you're wrong, you're wrong
    F#m      D
I'm not overreacting
A           E
Something is off
    F#m            D
Why don't we ever believe ourselves
   A E   F#m                 D
And I, oh, I feel that word for you

      A      E         F#m      D
And I will, because you've worn me down
      A      E         F#m      D
Oh, I will, because you've worn me down


CHORUS:
Guitar 1:

        A          E
Worn me down like a road
      F#m             D
I did everything you told
        A         E
Worn me down to my knees
       F#m           D
I did everything to please
        A         E     F#m           D
But you can't stop thinking about her
        A         E     F#m           D
No, you can't stop thinking about her

Guitar 2:
But you can't stop thinking about her...
E|----------------------------------------------------|
B|----------------------------------------------------|
G|----5-------5-6-6h5-------5---------5-5h6-8h10------|
D|-5h6-65--5h6-6-------5h6p5-65--5h6p5-6--------------|
A|----------------------------------------------------|
E|----------------------------------------------------|


D                E
   She's so damn pretty yeah!
D                E
   she's so damn right yeah!
D                  E
   and I'm so damn tired of thinking
D             E
   About her again tonight

        A          E
Worn me down like a road
      F#m             D
I did everything you told
        A         E
Worn me down to my knees
       F#m           D
I did everything to please
        A         E     F#m           D
But you can't stop thinking about her
        A         E     F#m           D
No, you can't stop thinking about her


        A          E
Worn me down like a road
      F#m             D
I did everything you told
        A         E
Worn me down to my knees
       F#m           D
I did everything to please
        A          E
Worn me down like a road
      F#m             D
I did everything you told to me to do
             A         E     F#m        D
But you, you can't stop thinking about her
        A         E     F#m           D
No, you can't stop thinking about her
        A         E     F#m           D
No, you can't stop thinking about her
        A         E     F#m           D
No, you can't stop thinking about her

Guitar 2:
But you can't stop thinking about her...
E|----------------------------------------------------|
B|----------------------------------------------------|
G|----5-------5-6-6h5-------5---------5-5h6-8h10------|
D|-5h6-65--5h6-6-------5h6p5-65--5h6p5-6--------------|
A|----------------------------------------------------|
E|----------------------------------------------------|

Fade Out...
Tap to rate this tab
# A B C D E F G H I J K L M N O P Q R S T U V W X Y Z