Song name
# A B C D E F G H I J K L M N O P Q R S T U V W X Y Z

Rachel Yamagata - Duet tab

Help us improve GuitareTab! Take a short survey!
-------------------------------------------------------------------------------
	 	  DUET - Rachel Yamagata ft. Ray Lamontagne
-------------------------------------------------------------------------------

Tuning: EADGBe


Intro           A
e|-------------------------------------------------------------|
B|--------------2-------2-------2-------2----------------------|
G|--------------2-------2-------2-------2----------------------|
D|------------2---2---2---2---2---2---2---2...-----------------|
A|----------0-------0-------0-------0--------------------------|
E|-------------------------------------------------------------|


Verse           A          E         F#m         C#
e|-------------------------------------------------------------|
B|--------------2----------0----------2----------5-------------|
G|--------------2----------1----------2----------6-------------|
D|------------2---2------2---2------4---4------6---6-----------|
A|----------0--------------------------------4-----------------|
E|--------------------0----------2-----------------------------|

                D          E          A          E
e|--------------2----------------------------------------------| first time, 
B|--------------3----------0----------2----------0-------------| repeat Verse
G|------------2---2--------1----------2----------1-------------| & end on A. 
D|----------0------------2---2------2---2------2---2-----------|
A|--------------------------------0----------------------------| all others,
E|--------------------0---------------------0------------------| end on A.


Chorus          D          E          A	         D
e|--------------2--------------------------------2-------------|
B|--------------3----------0----------2----------3-------------|
G|------------2---2--------1----------2--------2---2-----------|
D|----------0------------2---2------2---2----0-----------------|
A|--------------------------------0----------------------------|
E|--------------------0----------------------------------------|

                E          E          A
e|------------------------------------2------------------------|
B|--------------0----------0----------2------------------------|
G|--------------1----------1--------2---2----------------------|
D|------------2---2------2---2----0-------0...-----------------|
A|-------------------------------------------------------------|
E|---------0----------0----------------------------------------|


Bridge (hmms)   D          E          A         F#m
e|--------------2----------------------------------------------|
B|--------------3----------0----------2----------2-------------|
G|------------2---2--------1----------2----------2-------------|
D|----------0------------2---2------2---2------4---2-----------|
A|--------------------------------0----------------------------|
E|--------------------0---------------------2------------------|

                D          E          A          A
e|--------------2----------------------------------------------|
B|--------------3----------0----------2----------2-------------|
G|------------2---2--------1----------2----------2-------------| 
D|----------0------------2---2------2---2------2---2-----------|
A|--------------------------------0----------0-----------------|
E|--------------------0----------------------------------------|



Enjoy! Feel free to contact me at http://midoriw.tumblr.com
- Midori W.
Related for Duet tab