Song name
# A B C D E F G H I J K L M N O P Q R S T U V W X Y Z

Racoon - Love You More tab

Hey this is my first tab, i hope you like it :)
the first two tab pieces you have to repeat this is the couplet, the last three
pieces is the chorus.
sorry for my bad englisch ,,


E|-----------0-----------0-----------0-----------0--|
B|-----3-----------3-----------3-----------3--------|
G|--------2-----------2-----------2-----------2-----|
D|--------------------------------------------------|
A|--2-----------2-----------2-----------2-----------|
E|--------------------------------------------------|



E|----------------------------------------------|
B|--3p2-----2-----------0-----------2-----------|
G|----------------2-----------2-----------2-----|
D|-------2-----------2-----------2-----------2--|
A|--0----------0-----------0-----------0--------|
E|----------------------------------------------|



E|-----------3--------|
B|--------------3-----|
G|--------0--------0--|
D|--------------------|
A|-----2--------------|
E|--0-----------------|



E|--3p2-----2--------|
B|-------------3-----|
G|-------2--------2--|
D|--0----------------|
A|-------------------|
E|-------------------|



E|----------------------------------------------|
B|--3p2-----2-----------0-----------2-----------|
G|----------------2-----------2-----------2-----|
D|-------2-----------2-----------2-----------2--|
A|--0----------0-----------0-----------0--------|
E|----------------------------------------------|
Tap to rate this tab
# A B C D E F G H I J K L M N O P Q R S T U V W X Y Z