Radaid - Tanjou tab

E |-------------------|-------------------|-------|
A |-------------------|-------------------|-------|
D |---------7-5-7---7-|---------7-5-7---7-|-------|
G |-----7-5-------5---|-----7-5-------5---|-------|
B |-3h5---------------|-3h5---------------|-3v-5v-|
e |-------------------|-------------------|-------|

E |---------------|------------------------|
A |---------------|------------------------|
D |-7-------------|-7---------------7-5-7t-|
G |---5-7-7-7---7-|---5-7-7-7---7-5--------|
B |-----------5---|-----------5------------|
e |---------------|------------------------|
Tap to rate this tab
 
# A B C D E F G H I J K L M N O P Q R S T U V W X Y Z