Song name
# A B C D E F G H I J K L M N O P Q R S T U V W X Y Z

Radical Face - Always Gold tab

-------------------------------------------------------------------------------
                             Always Gold - Radical Faces
-------------------------------------------------------------------------------
Tabbed by: aes37
E-mail: august_smith37@ymail.com

Tuning: Standard, Capo-1

e|----------------------------------------x----------------------------------|
B|----------------------------------------1----------------------------------|
G|-2-----0-------0-------------------0----2---2h4----------------------------|
D|---3-----3---2---2---2p0---0---------0--2-2--------------------------------|
A|-----0-----0-------3-----3-----0h2------x----------------------------------|
E|-----------------------------3----------x----------------------------------|
Tap to rate this tab
 
# A B C D E F G H I J K L M N O P Q R S T U V W X Y Z