Song name
# A B C D E F G H I J K L M N O P Q R S T U V W X Y Z

Radical Face - Always Gold tab

First tab so hope it's alright, quite a simple intro so should be cool :)
Capo on 1st fret


EI -------------------------------------------------0-----------------------|
AI -------------------------------------------------1-----------------------|
GI -2-0----------------0------0--2p0----------------0-----------------------|
DI -----2---2p0------0--2---2--------2--2p0---0-----2-----------------------|
BI --------------3---------------------------3---3--3-----------------------|
EI -------------------------------------------------0-----------------------|

----------------------------------------------------------------------|
--------0-1---------1-3-1p0h1-----------------------------------------|
----0-2-----0---0h2---------------------------------------------------|
--2-----------------------------2p0------------0-2-0------------------|
------------------------------------3-0-3-3--3-------3-2h3------------|
----------------------------------------------------------------------|

---------------------------------------------------------------------|
---------------------------------------------------------------------|
---------------------------------------------------------------------|
--2-0-------------0--------------------------------------------------|
------3--0-3-3--3--3-2-------2-3-------------------------------------|
---------------------------3-----------------------------------------|
Tap to rate this tab
 
# A B C D E F G H I J K L M N O P Q R S T U V W X Y Z