Song name
# A B C D E F G H I J K L M N O P Q R S T U V W X Y Z

Radical Face - Always Gold tab

This is my attempt to make a tab based on Ben Cooper's tutorial in this video:
http://youtu.be/9FbCMqenXKQ

I'm not a great guitarist and I haven't made many tabs but I find them easier to
follow than a video. I hope this is helpful.


Chords used during the strummed sections:

EmAddC   F/C   Csus4    G*   Asus2   G**    G5*
|-0-|   |-X-|  |-X-|  |-X-|  |-0-|  |-X-|  |-X-|
|-1-|   |-1-|  |-1-|  |-3-|  |-0-|  |-0-|  |-3-|
|-0-|   |-2-|  |-0-|  |-0-|  |-2-|  |-0-|  |-0-|
|-2-|   |-3-|  |-3-|  |-0-|  |-2-|  |-0-|  |-0-|
|-2-|   |-3-|  |-3-|  |-2-|  |-0-|  |-2-|  |-X-|
|-0-|   |-X-|  |-X-|  |-3-|  |-X-|  |-3-|  |-3-|


Capot 1 (Ben plays with his guitar tuned down a half step, so he has his capot on 2)

1:13
[Intro/Verse]

e|-----------------------------------------------------------------------------|
B|-----------------------------------------------------------------------------|
G|-2-----0-------0----0------------------------0-------2----2-------2h4--------|
D|---3-----3-----2------2----2p0----0------------0-----2------2--------0-------|
A|-----3-----3---3--------3-------3-------0h2----------0---------0-------0-----|
E|--------------------------------------3-----------3--------------------------|

e|---------------------------------------------------------------------|
B|---------------------------------------------------------------------|
G|-2-----0-------0---0--------------------0-------0----0------------0--|
D|---3-----3-----2-----2---2p0---0----------0-----2------2-----2h3---3-| X4
A|-----3-----3---3-------3-----3-----0h2----------3---------3----------|
E|----------------------------------3----------3-----------------------|
(singing comes in on the 3rd time)

1:58 "But I am gonna be here ..."                        "And I was ..."
e|----------------------------------------------------------------|
B|----------------------------------------------------------------|
G|-2-----0-------0----0------------------------0---0---0---0---0--|
D|---3-----3-----2------2----2p0----0-----------------------------|
A|-----3-----3---3--------3-------3-------0h2---------------------|
E|--------------------------------------3--------3---3---3---3----|

2:05
[Chorus]

Am                      EmAddC*     Em
...there when you were restless

F/C* Csus4*   C       G*
left in the dead of night

      Am                      EmAddC*       Em
And I was there when three months later

         F/C*  Csus4*                          G*
you were standing in the door all beaten and tired

And I stepped aside.

2:29
[Instrumental]
(same chords as the intro/verse, but strummed)

F/C-->Csus4   C    G   Asus2-->Am-->Asus2   F/C--Csus4   C    G**-->G*   C

2:46
"Everything goes away ..."
e|---------------------------------------------------------------------|
B|---------------------------------------------------------------------|
G|-2-----0-------0---0--------------------0-------0----0------------0--|
D|---3-----3-----2-----2---2p0---0----------0-----2------2-----2h3---3-|
A|-----3-----3---3-------3-----3-----0h2----------3---------3----------|
E|----------------------------------3----------3-----------------------|

2:52 "But I am gonna be here ..."                           "So quiet down."
e|----------------------------------------------------------------|
B|----------------------------------------------------------------|
G|-2-----0-------0----0------------------------0---0---0---0---0--|
D|---3-----3-----2------2----2p0----0-----------------------------|
A|-----3-----3---3--------3-------3-------0h2---------------------|
E|--------------------------------------3--------3---3---3---3----|


2:59 (Palm muted)
e|----------------------------------------------------------|
B|----------------------------------------------------------|
G|--------------------------2-4-2----2----4-5---------------|
D|--2----2----2-3-----------0-0-2----2----2-2-2----2----2-2-|
A|--3----3----3-3-2----2----x-x---------------2----2----2-0-|
E|----------------3----3----3-3-----------------------------|

                                               "We were opposites at birth ..."
e|-------------------------------------------------------|
B|-------------------------------------------------------|
G|-------------------------------------------------------|
D|---------------2----2----3-5---------------------------| X3
A|-3----3----3-0-3----3----3-3-2----2----3-2----2----2-3-|
E|-1----1----1-1---------------3----3----3-3----3----3-3-|


4:09 "But I am fine with where I am now ..."
e|-------------------------------------------------------|
B|-1--1-0-----------------------1------------------------|
G|-2------2----0----------------2--2-0-------0---0-------|
D|-2--------2------2------------3------3-----2-----2--0--|
A|-0-------------------2--------3---------3--3--------2--|
E|-------------0-----------0--------------------------3--|

"But for you this place is shame,"
e|----------------------------|
B|-1--1-0---------------------|
G|-2------2----0--------------|
D|-2--------2------2----------|
A|-0-------------------2------|
E|-------------0-----------0--|

F/C                                                 G5*
"And you can blame me when there's no one left to blame"

G5*
"Oh, I don't mind."

4:32 [Instrumental]

{Am  EmAddC*  Em  F/C*  Csus4  C  G*  Asus2  Am  EmAddC*  Em  F/C*  Csus4  G**  G*  }X2


5:20 (Slower strumming)

F/C*  Csus4  C   G*  Am   F/C*  Csus4  G*  C  }X2
"All my life ..."


5:43
               F/C*   Csus4    C               Am                G*
"But I am gonna be here till forever, so just call when you're around"
Tap to rate this tab
# A B C D E F G H I J K L M N O P Q R S T U V W X Y Z