Song name
# A B C D E F G H I J K L M N O P Q R S T U V W X Y Z

Radical Face - Holy Branches tab

    Fm                      G#                       Bbm                           Fm
    1  +  2  +  3  +  4  +  1  +  2  +  3  +  4  +   1  +  2  +  3  +  4  +  1  +  2  +  3  +  4  +
E||------------------------------------------------|------------------------------------------------|
B||------------------------------------------------|------------------------------------------------|
G||-------------------------------5--------5-------|-------3--1--3-/5--3p-1-------------------------|
D||-------3--------3--------------6--------6-------|-------3-----3-----------3-----3--1--3--5b----1-|
A||-------3--------3--------------6--------6-------|-1-----1-----1-----------------3----------------|
E||-1--------1--1----------/4--------4--4----------|-------------------------------1----------------|

  Fm                Gm    G#                       Bbm
  1  +  2  +  3  +  4  +  1  +  2  +  3  +  4  +   1  +  2  +  3  +  4  +  1  +  2  +  3  +  4  +
|------------------------------------------------|------------------------------------------------|
|------------------------------------------------|------------------------------------------------|
|-------------------------------5--------5-------|-------3--1--3-h5\-3p-1-------------------------|
|-------3--------3--------------6--------6-------|-------3-----------------3----------------------|
|-------3--------------6--------6--------6-------|-1-----1----------------------------------------|
|-1--------1--1----/3-----4--------4--4----------|------------------------------------------------|
Tap to rate this tab
 
# A B C D E F G H I J K L M N O P Q R S T U V W X Y Z