Song name
# A B C D E F G H I J K L M N O P Q R S T U V W X Y Z

Radical Something - Sky Is Born tab

-----------------------------------------------------------------------------
                                             Sky Is Born - Radical Something
-----------------------------------------------------------------------------
Tabbed by: SP7T

Hi everybody, here's my first tab !
It's an easy one, played with an acoustic guitar.
It's from the song "Sky Is Born" from Radical Something. Those guys are amazing !
You can hear it at the beginning of the song 
but the pattern repeats all along the song. 
I now have to figure out the chords :).

Enjoy and rate :)


Tuning: Standard

e|--------------------------------------------------------------------------|
B|--------------------------------------------------------------------------|
G|----------------2--4--2----2----------------------------------------------|
D|--0----0--2--4----------------4--2--0----------------0--------------------|
A|---------------------------------------2----2--2--2----------------0--2---|
E|--------------------------------------------------------3----3--3---------|

Tap to rate this tab
# A B C D E F G H I J K L M N O P Q R S T U V W X Y Z