Song name
# A B C D E F G H I J K L M N O P Q R S T U V W X Y Z

Radical Something - Valentine tab

-------------------------------------------------------------------------------
			     Radical Something  -  Valentine
-------------------------------------------------------------------------------
Tabbed by: MadScripter (http://madscripter.tumblr.com/)
E-mail: madscripter@hotmail.com

Tuning: Standard (EADGBe)

Chords: Em    C     G     D
e-------7-----3-----3-----5----|
B-------8-----5-----3-----7----|
G-------9-----5-----4-----7----|
D-------9-----5-----5-----7----|
A-------7-----3-----5-----5----|
E-------------------3----------|


Intro:
e------------------------------------------|-------------|
B------------------------------------------|-------------|
G--9-11-12--5----9-11-12--4----9-11-12--2--|-------------|
D------------------------------------------|--5/7-5-4-5--|
A------------------------------------------|-------------|
E------------------------------------------|-------------|


Verse:
e-------------------------------------------------------------------|
B-------------------------------------------------------------------|
G-------------------------------------------------------------------|
D--5-4-2------10-9-7------7-5-4------7-5-4---2--| OR |--7-5-4-------|
A-----------------------------------------------|    |---------7----|
E-------------------------------------------------------------------|


Chorus:
Em - C - G - D (x2)


Outro:
e------------------------------------------|-------------|
B------------------------------------------|-------------|
G--9-11-12--5----9-11-12--4----9-11-12--2--|-------------|
D------------------------------------------|--5/7-5-4-5--|
A------------------------------------------|-------------|
E------------------------------------------|-------------|

NOTE: For the outro in one of the versions, there's an accoustic guitar playing, the 
chords are the same as the chorus.

************************************

| /   slide up
| \   slide down
| h   hammer-on
| p   pull-off
| ~   vibrato
| +   harmonic
| x   Mute note
| b   Bend
| pb  Pre-bend
| br  Bend release
| pbr Pre-bend release
| brb Bend release bend

************************************
Tap to rate this tab
# A B C D E F G H I J K L M N O P Q R S T U V W X Y Z