Guitaretab - guitar tabs
Song name
# A B C D E F G H I J K L M N O P Q R S T U V W X Y Z

Radio Birdman - Non-stop Girls tab

-----------------------------------------------------------------------------
			  Non-Stop Girls - Radio Birdman
-----------------------------------------------------------------------------

Tuning:Standard
[ Tab from: http://www.guitaretab.com/r/radio-birdman/59793.html ]
Intro/Prechorus/Ending
e|--------------------------------------------------------------|
B|--------------------------------------------------------------|
G|-9-9-9-9-9-9-9-9-11-11-11-11-11-11-11-11-12-12-12-12-12-12-12-|
D|-9-9-9-9-9-9-9-9-11-11-11-11-11-11-11-11-12-12-12-12-12-12-12-|
A|-7-7-7-7-7-7-7-7-9--9--9--9--9--9--9--9--10-10-10-10-10-10-10-|
E|--------------------------------------------------------------|
p.m.............................................................
e|-------------------------------------------------|
B|-------------------------------------------------|
G|-14-14-14-14-14-14-14-14-16--16--16--16--16--16--|
D|-14-14-14-14-14-14-14-14-16--16--16--16--16--16--|
A|-12-12-12-12-12-12-12-12-14--14--14--14--14--14--|
E|-------------------------------------------------|
p.m.......................

Verse
e|-------------------------------------------------|
B|-------------------------------------------------|
G|-------------------------------------14-14-x-14--|
D|-14-14-x-14--14-14-x-14--12-12-x-12--14-14-x-14--|
A|-14-14-x-14--14-14-x-14--12-12-x-12--12-12-x-12--|
E|-12-12-x-12--12-12-x-12--10-10-x-10--------------|

Chorus
e|----------------------------------|
B|---------------------10-12-10-----|
G|-9--9-11-9--------12----------12--|
D|-----------10-12------------------|
A|----------------------------------|
E|----------------------------------|

Solo - Play the chorus riff and then...
e|-------------------------------------------------------|
B|-------------------------------------------------------|
G|-9-9p7-9-9p7-9-9p7-9-9p7-9-9p7-9-9p7-9-9p7-9-9p7-9-9p7-|
D|-------------------------------------------------------|
A|-------------------------------------------------------|
E|-------------------------------------------------------|
Related for Non-stop Girls tab