Guitaretab - guitar tabs
Song name
# A B C D E F G H I J K L M N O P Q R S T U V W X Y Z

Radio Futura - Escuela De Calor tab

-------------------------------------------------------------------------------
			     Escuela De Calor - Radio Futura
-------------------------------------------------------------------------------
Tabbed by: TheTroy
Tuning: Standard

ok. so this is what ill do. im tired right now so all i will do is tab
the parts in the song. your job as the viewer ofthis tab is to figure out
when and where all these parts are played in the song. got it?

intro
e|-------------------------------|--|----------------------------------------|
B|-6/8-7-5-----------------------|--|-6/8-7-5--------------------------------|
G|---------7-5h6------------6h7-6|X?|---------7-5h6--------------------------|
D|---------------7------5-7------|--|---------------7------5-7---------------|
A|-----------------5--7----------|--|-----------------5--7-----7-4~----------|
E|-------------------------------|--|----------------------------------------|
[ Tab from: http://www.guitaretab.com/r/radio-futura/176123.html ]
verse guitar 1 (pick fast)
e|---------------------------------------------------------------------------|
B|---------------------------------------------------------------------------|
G|---------------------------------------------------------------------------|
D|-55-44-55-44-55-44-55-44-77777-000-77777-000-------------------------------|
A|---------------------------------------------------------------------------|
E|---------------------------------------------------------------------------|

Verse guitar 2 (add some mutes in here. ithink this is what it is)
e|-3-3-3-3----5-5-5-5--------------------------------------------------------|
B|-3-3-3-3----5-5-5-5--------------------------------------------------------|
G|-4-4-4-4----6-6-6-6--------------------------------------------------------|
D|---------------------------------------------------------------------------|
A|---------------------------------------------------------------------------|
E|---------------------------------------------------------------------------|

bridge thing
e|---------------------------------------------------------------------------|
B|---------------------------------------------------------------------------|
G|---------------------------------------------------------------------------|
D|------0-3-0---0-------0----------------------------------------------------|
A|----2-------2---0-0-2------------------------------------------------------|
E|-3~---------------------0-2-3----------------------------------------------|


there. thats pretty much it. if i missed anything well then sorry. just post them up


| /  slide up
| \  slide down
| h  hammer-on
| p  pull-off
| ~  vibrato
| +  harmonic
| x  Mute note
===============================================================================
Related for Escuela De Calor tab