Song name
# A B C D E F G H I J K L M N O P Q R S T U V W X Y Z

Radio Futura - La Escuela De Calor tab

La Escuela De Calor - Radio Futura
-------------------------------------------------------------------------------
Tabbed by:matt
Email:

Tuning:

e|---------------------------------------------------------------------------------|
B|---6s8-----5------7--------------------------------------------------------------|
G|-------------------------5---------5h6-------------------------------------------|
D|---------------------------------------------7-------------------5---------------|
A|----------------------------------------------------5------7---------------------|
E|---------------------------------------------------------------------------------|

e|----------------------------------------------------------------------------------|
B|----------------------------------------------------------------------------------|
G|----------------------------------------------------------------------------------|
D|----------------------------------------------------------------------------------|
A|---7---------6h7--------6---------------------------------------------------------|
E|----------------------------------------------------------------------------------|


| /  slide up
| \  slide down
| h  hammer-on
| p  pull-off
| ~  vibrato
| +  harmonic
| x  Mute note
===============================================================================
Tap to rate this tab
# A B C D E F G H I J K L M N O P Q R S T U V W X Y Z