Song name
# A B C D E F G H I J K L M N O P Q R S T U V W X Y Z

Radio Kaos - Botas Negras chords

Highlighted       Show chord diagrams
  G
AQUÍ VIENE LOS BOTAS NEGRAS
 C7
MARCHANDO SIN TEMOR
 G
CANTANDO EL PASO EN UNA GUERRA
 C7
QUE LLEVAN EN SU INTERIOR

 G                       C7
POBRES BOTAS NEGRAS SI HIEREN SERA PEOR 1,2,3..VA


SOLO:

E---14^15--14-15-15^-17--15--14--12-------------------------------|
B------------------------------------12-13^-15--------------------|
G-----------------------------------------------------------------|
D-----------------------------------------------------------------|
A-----------------------------------------------------------------|
E-----------------------------------------------------------------|


E------------------------------------------------------------------|
B--17--15--13--12--------------------------------------------------|
G-----------------12-^14-^12--14-^16-------------------------------|
D------------------------------------------------------------------|
A------------------------------------------------------------------|
E------------------------------------------------------------------|

 G                                C7
SON MIS AMIGOS DE LA INFANCIA Y VAN MARCHANDO SIN TEMOR
 G                             C7
TODOS CANTANDO UNA DE GUERRA Y ELLOS CANTAN THE WALL
 G                          C7
RAPARON TODAS SUS CABEZAS PERO NO SU CORAZON

 G                          C7
ALLI SE VAN MIS BOTAS NEGRAS GRITANDOME SIN VOZ
 G                      C7
EL FLACO BOTAS NEGRAS  CANTANDO ESTA CANCION

  G                     C7
AQUÍ VIENEN LOS BOTAS NEGRAS NOS GUSTA EL ROCK N ROLL
  G                    C7
NOS GUSTAN ESAS PIEZAS QUE REVIENTAN CON EL SOUL
 G                     C7
NOS GUSTA LA NATURALEZA, LA HIERBA Y EL AMOR
 G                     C7
NOS GUSTAN LAS PROTESTAS JUSTAS ODIAMOS LA OPRESION

 G                     C7
SOMOS BOTAS NEGRAS DE LA CALLE Y ROCK N ROLL

G                          C7
LLOVIA INVIERNO OI LA PUERTA SENTI ALGUIEN LLAMO
G                         C7
PEDI AL SOL QUE FUERAN ELLOS Y SOLO UNO VOLVIO
 G                        C7
CON LA MIRADA DESTROZADA LLORANDO ME ABRAZO
 G                        C7
AQUÍ TRAJE SUS BOTAS NEGRAS Y EN SANGRE UNA CANCION
 G                       C7
AQUÍ SOMOS LOS BOTAS NEGRAS MARCHAMOS CON TEMOR
 G                       C7
MARCANDO EL PASO ENTRE LAS BOMBAS,LA MUERTE Y EL DOLOR
 G               C7
SI NO VOLVEMOS, SI NO VOLVEMOS HOY
 G                C7
EL FLACO BOTAS NEGRAS CANTANDO ESTA CANCION..ETC.
Tap to rate this tab
 
# A B C D E F G H I J K L M N O P Q R S T U V W X Y Z