Song name
# A B C D E F G H I J K L M N O P Q R S T U V W X Y Z

Radio Moscow - Lucky Dutch tab

---------------------------------------------------------------------------
			     Lucky Dutch - Radio Moscow
---------------------------------------------------------------------------
Tabbed by: Dash
('bout time someone put up a Radio Moscow tab)
Tuning: standard

intro and main lick:
e|-------------------------------------------8~----------------------|
B|--10-10p8-----------------------10-10p8--------10p8h10~------------|repeat
G|----------9--7-9p7p0--------------------9--------------------------|as
D|----------------------7--------------------------------------------|needed
A|-------------------------------------------------------------------|
E|-------------------------------------------------------------------|

verse:
e|------------------------------------------------------------------------|
B|------------------------------------------------------------------------|
G|------------------------------------------------------------------------|
D|-7-7-9-7--7-9-7--7-9-7---------(Play Main Lick)-------------------------|
A|-5-5-5-5--5-5-5--5-5-5-5------------------------------------------------|
E|-------------------------8~--5------------------------------------------|

http://www.alive-totalenergy.com/Radio_Moscow.html
Tap to rate this tab
# A B C D E F G H I J K L M N O P Q R S T U V W X Y Z