Song name
# A B C D E F G H I J K L M N O P Q R S T U V W X Y Z

Radio Moscow - Brain Cycles tab

Intro:
e-------------------------------------------------------------------X-X-X-X-|
b-------------------------------------------------------------------X-X-X-X-|
g------------------------------------------0------------------------X-X-X-X-|
d----------2-2-0h2p0-------------2-2-0h2p0------------2-2-0h2p0-----X-X-X-X-|
a--------------------2p0----------------------------------------2p0-X-X-X-X-|
e--0-0h3p0---------------0-0h3p0--------------0-0h3p0---------------X-X-X-X-|

Verse:
e---------------------------------------------------------------------------|
b---------------------------------------------------------------------------|
g------------------------------------------0--------------------------------|
d----------2-2-0h2p0-------------2-2-0h2p0------------2-2-0h2p0-------------|
a--------------------2p0----------------------------------------2p0---------|
e--0-0h3p0---------------0-0h3p0--------------0-0h3p0-----------------------|


e---------------------------------------------------------------------------|
b---------------------------------------------------------------------------|
g------------2p0------------------------------------------------------------|
d--------2p0-------2p0-----------------0-2-0--------------------------------|
a--0h2p0---------------2p0---------0-2-------2-0----------------------------|
e--------------------------3---0-3---------------3--------------------------|

Solo: E (no 3rd) X 3
Tap to rate this tab
# A B C D E F G H I J K L M N O P Q R S T U V W X Y Z