Song name
# A B C D E F G H I J K L M N O P Q R S T U V W X Y Z

Radio Moscow - The Escape tab

I tabbed what I could. No solos. He's too damn good >:O

Tuning: Standard


Intro/Verse: 4x
e|---------------------------------------------------------------------------|
B|---------------------------------------------------------------------------|
G|---------------------------------5----------------7----------------5-------|
D|----------------7----------------5----------------7----------------5-------|
A|--3p0-3p0-------7--3p0-3p0-------3--3p0-3p0-------5--3p0-3p0-------3-------|
E|-----------3/5--5-----------3/5--------------3/5--------------3/5----------|



Guitar behind the first solo: 2x
e|---------------------------------------------------------------------------|
B|---------------------------------------------------------------------------|
G|---------------------------------------------------------------------------|
D|---------------------------------------------------------------------------|
A|--3p0-3p0----/12-10-7-6-5-5b---3v--------------3p0-3p0---------------------|
E|-----------3-----------------5----5-3-3-3-3-3----------3/5--5--------------|
                ^                     ^ ^ ^ ^ ^
   come back in here             use some rubato here      repeat <
Tap to rate this tab
 
# A B C D E F G H I J K L M N O P Q R S T U V W X Y Z