Song name
# A B C D E F G H I J K L M N O P Q R S T U V W X Y Z

Radio Moscow - Lucky Dutch tab

Intro:
e|----------------|
B|----------------|
G|----------------|
D|2~--------------|
A|2~--------------|
E|0~--------------|

Bass:
e|----------------|
B|----------------|
G|----------------|
D|----------------|
A|-----5~--7p5----|
E|-5h7---------7--|

e|----------------------------|-----------------------|
b|----------------------------|-----------8~----------|
G|--9-9p7---------------------|--9-9p7-------9p7h9~---|
D|--------5h7~-5h7p5----------|--------9--------------|
A|-------------------5h7~-----|-----------------------|
E|--------------------------- |-----------------------|

e|----------------------------|-----------------------|
b|----------------------------|-----------8~----------|
G|--9-9p7---------------------|--9-9p7-------9p7h9~---|
D|--------5h7~-5h7p5----------|--------9--------------|
A|-------------------5h7~-----|-----------------------|
E|--------------------------- |-----------------------|

e|----------------------------|-----------------------|
b|----------------------------|-----------8~----------|
G|--9-9p7---------------------|--9-9p7-------9-9/14~--|
D|--------5h7~-5h7p5----------|--------9--------------|
A|-------------------5h7~-----|-----------------------|
E|--------------------------- |-----------------------|

e|----------------------------|-----------------------|
b|----------------------------|-----------8~----------|
G|--9-9p7---------------------|--9-9p7-------9p7h9~---|
D|--------5h7~-5h7p5----------|--------9--------------|
A|-------------------5h7~-----|-----------------------|
E|--------------------------- |-----------------------|


Verse:
e|----------------------------------------------------|             
B|----------------------------------------------------|             
G|----------------------------------------------------|            
D|---------------------------------2------------------|           
A|--7-7-9-7---7-9-7---7-9-7--------2------------------|             
E|--5-5-5-5---5-5-5---5-5-5--/15---0--h3~-------------|              
                                                                            
e|----------------------------|-----------------------|
b|----------------------------|-----------8~----------|
G|--9-9p7---------------------|--9-9p7-------9p7h9~---|
D|--------5h7~-5h7p5----------|--------9--------------|
A|-------------------5h7~-----|-----------------------|
E|--------------------------- |-----------------------|    

e|----------------------------------------------------|             
B|----------------------------------------------------|             
G|----------------------------------------------------|            
D|---------------------------------2------------------|           
A|--7-7-9-7---7-9-7---7-9-7--------2------------------|             
E|--5-5-5-5---5-5-5---5-5-5--/15---0--h3~-------------|              
                                                                            
e|----------------------------|-----------------------|
b|----------------------------|-----------8~----------|
G|--9-9p7---------------------|--9-9p7-------9p7h9~---|
D|--------5h7~-5h7p5----------|--------9--------------|
A|-------------------5h7~-----|-----------------------|
E|--------------------------- |-----------------------|  

e|----------------------------------------------------------|
B|----------------------------------------------------------|
G|----------------------------------------------------------|
D|-----------------------------------2----------------------|
A|--9-9-11-9---9-11-9---7-9-7--------2----------------------|
E|--7-7--7-7---7--7-7---5-5-5--/15---0---h3~----------------|

e|----------------------------|-----------------------|
b|----------------------------|-----------8~----------|
G|--9-9p7---------------------|--9-9p7-------9p7h9~---|
D|--------5h7~-5h7p5----------|--------9--------------|
A|-------------------5h7~-----|-----------------------|
E|--------------------------- |-----------------------| 

SOLO:
For the solo I usually improvise, but he starts with something like this:

e|-----------------------------------------------------------|
b|-----------------------------------------------------------|
G|13/14~-14b-14b-12h1412-----12h1412--12h14h12h14h12--12-----|
D|----------------------12~---------12--------------12--12---|
A|-----------------------------------------------------------|
E|-----------------------------------------------------------|

I will update this tab with the full solo later.
Tap to rate this tab
# A B C D E F G H I J K L M N O P Q R S T U V W X Y Z