Song name
# A B C D E F G H I J K L M N O P Q R S T U V W X Y Z

Radio Moscow - Creepin tab

-------------------------
Creepin' by Radio Moscow
-------------------------
Tuning: Drop D

Riff 1:
|-----------------------------------------------------|
|-----------------------------------------------------|
|-------------------------5---------------------------|   x4
|-----7p5p0----5--7-----7---7p5p0---------------------|
|--0----------------------------------------3h5p3-p0--|
|-----------------------------------------------------|

Riff 2:
|--------------------------------------------8--------|
|--------------------------------------------8--------|
|-----------------------7--5--------------------------| x2
|-0-7p5p0---5--7---------7p5p0-5----------------------|
|-----------------------------------------------------|
|-----------------------------------------------------|
(Back to Riff 1: x1)

|--------------8-(8)--------------8-(8)---------------|
|--------------8-(8)--------------8-(8)---------------|
|-----------------------------------------------------|
|--3-3-4-5-----------3-3-4-5--------------------------|
|--3-3-4-5-----------3-3-4-5--------------------------|
|--3-3-4-5-----------3-3-4-5--------------------------|

|-----------8-(8)-------------8-(8)-------------------|
|-----------8-(8)-------------8-(8)-------------------|
|-----------------------------------------------------|
|--5-6-7----------5-5-6-7-----------------------------|
|--5-6-7----------5-5-6-7-----------------------------|
|--5-6-7----------5-5-6-7-----------------------------|


A video of this lesson is at:
http://opendtuning.com/creepin-radio-moscow-lesson/
Tap to rate this tab
# A B C D E F G H I J K L M N O P Q R S T U V W X Y Z