Song name
# A B C D E F G H I J K L M N O P Q R S T U V W X Y Z

Radioaktiva Raker - Drommen tab

Help us improve GuitareTab! Take a short survey!
"Radioaktiva Räker - Drömmen"
Figured i might aswell write the tabs out, when i started playing it was
much easier to learn tabs.


play the intro kind of muted and with downstrokes(hehe..) only but release
the"muting" at the F# powerchord

 Bm Gm Bm Gm  D  A  Bm F# Gm A    F#*
  |  |  |  |  |  |  |  |  |  |    |
  v  v  v  v  v  v  v  v  v  v    v
|-------------------------------|----|   (Intro - palm muted)
|-------------------------------|----|
|-4-----4-----7-----4-----------|-11-|
|-4--5--4--5--7--7--4--4--5--7--|-11-|
|-2--5--2--5--5--7--2--4--5--7--|-9--|
|----3-----3-----5-----2--3--5--|----|

 Palm muting again

|--------------------------------|
|--------------------------------|
|-4-----4-----7-----4------------|
|-4--5--4--5--7--7--4--4--5--7-4-|
|-2--5--2--5--5--7--2--4--5--7-4-|
|----3-----3-----5-----2--3--5-2-|

|----------------------------------------------------------------|
|----------------------------------------------------------------|
|-44-444-4----------44-444-4----------77-777-7----------44-444-4-|
|-44-444-4-55-555-5-44-444-4-55-555-5-77-777-7-77-777-7-44-444-4-|
|-22-222-2-55-555-5-22-222-2-55-555-5-55-555-5-77-777-7-22-222-2-|
|----------33-333-3----------33-333-3----------55-555-5----------|

-----------------------------------------|
-----------------------------------------|
-----------------------------------------|
44-444-4-55-555-5-77-777-7-44444444444444|
44-444-4-55-555-5-77-777-7-44444444444444|
22-222-2-33 333 3-55 555 5-22222222222222|

Chorus
|-------------------------------------------------------------|
|-------------------------------------------------------------|
|-44-444-444-444----------------77-777-7----------------------|
|-44-444-444-444-55-555-555-555-77-777-7-77-777-7-44-444-444-4|
|-22-222-222-222-55-555-555-555-55-555 5 77-777-7-44-444-444-4|
|----------------33-333-333-333--------- 55-555-5-22-222-222-2|

solo(....duh)
|-----------------------------------------------5------|
|-7p-5---7----7p-5---8------5-5-7h-77-55---5-7h---7-5--|
|------7---44------7---77-7--------------7-------------|
|------------------------------------------------------|
|------------------------------------------------------|
|------------------------------------------------------|

|---------------------------------------------------------------------|
|-7p-5---7----7p-5---8------5-5-7h-7b-5---5-5-7h-7-777-5--------------|
|------7---44------7---77-7-------------7---------------7-6-4---4-6-4-|
|-------------------------------------------------------------7-------|
|---------------------------------------------------------------------|
|---------------------------------------------------------------------|

 Palm muting again
			stop palm muting
				|
				v
|------------------------------|--|
|------------------------------|--|
|-4-----4-----7-----4----------|11|
|-4--5--4--5--7--7--4--4--5--7-|11|
|-2--5--2--5--5--7--2--4--5--7-|9-|
|----3-----3-----5-----2--3--5-|--|

Chorus again
|-------------------------------------------------------------|
|-------------------------------------------------------------|
|-44-444-444-444----------------77-777-7----------------------|
|-44-444-444-444-55-555-555-555-77-777-7-77-777-7-44-444-444-4|
|-22-222-222-222-55-555-555-555-55-555-5-77-777-7-44-444-444-4|
|----------------33-333-333-333----------55-555-5-22-222-222-2|
Related for Drommen tab