Guitaretab - guitar tabs
Song name
# A B C D E F G H I J K L M N O P Q R S T U V W X Y Z

Radioblaster - Heatscore tab

Radioblaster - Heatscore
Listen Closer

http://www.last.fm/music/Radioblaster

Intro:
E|-------------------------------------------------------|
B|-------------------------------------------------------|
G|-6-7-7-6-4--6-4-6-7-7-6-4--6-4-6-7-7-6-4--6-4-2-2--2-2-|
D|-0-0-0-0-0--0-0-0-0-0-0-0--0-0-0-0-0-0-0--0-0-0-0--0-0-| x2
A|-------------------------------------------------------|
E|-------------------------------------------------------|


Verse 1:
  1					  2
E|---------------------------------------|-----------------------------------------|
B|---------------------------------------|-----------------------------------------| 
G|-14--14-14-14-16-11-12--12-12-11-12-9--|-14--14-14-14-16-11-12--11-12-11-12-11-7-|
D|-0---0--0--0--0--0--0---0--0--0--0--0--|-0---0--0--0--0--0--0---0--0--0--0--0--0-|
A|---------------------------------------|-----------------------------------------|
E|---------------------------------------|-----------------------------------------|
					
  3
E|-12-12----12-12----12-12----12-12----|
B|-------------------------------------|
G|-9--9-x-x-9--9-x-x-9--9-x-x-9--9-x-x-|
D|-------------------------------------|
A|-7--7-x-x-7--7-x-x-7--7-x-x-7--7-x-x-|
E|-------------------------------------|

goes: 1,2,1,3, 1,2,1,3


Chorus:
E|-------------------------------------------------------|
B|-------------------------------------------------------|
G|-6-7-7-6-4--6-4-6-7-7-6-4--6-4-6-7-7-6-4--6-4-2-2--2-2-|
D|-0-0-0-0-0--0-0-0-0-0-0-0--0-0-0-0-0-0-0--0-0-0-0--0-0-| x2
A|-------------------------------------------------------|
E|-------------------------------------------------------|


Verse 2:
  1					  2
E|---------------------------------------|-----------------------------------------|
B|---------------------------------------|-----------------------------------------|
G|-14--14-14-14-16-11-12--12-12-11-12-9--|-14--14-14-14-16-11-12--11-12-11-12-11-7-|
D|-0---0--0--0--0--0--0---0--0--0--0--0--|-0---0--0--0--0--0--0---0--0--0--0--0--0-|
A|---------------------------------------|-----------------------------------------|
E|---------------------------------------|-----------------------------------------|
[ Tab from: http://www.guitaretab.com/r/radioblaster/175157.html ]
  3
E|-12-12----12-12----12-12----12-12----|
B|-------------------------------------|
G|-9--9-x-x-9--9-x-x-9--9-x-x-9--9-x-x-|
D|-------------------------------------|
A|-7--7-x-x-7--7-x-x-7--7-x-x-7--7-x-x-|
E|-------------------------------------|

goes: 1,2,1,3
then...

E|--------------------------------------|---------------------------------------|
B|--------------------------------------|---------------------------------------|
G|-14--14-14-14-16-11-12--12-12-11-12-9-|-14-16--14-16--14-16--11-12-11-12-11-7-|
D|-0---0--0--0--0--0--0---0--0--0--0--0-|-0---0--0--0---0--0---0--0--0--0--0--0-|
A|--------------------------------------|---------------------------------------|
E|--------------------------------------|---------------------------------------|

E|---------------------------------------|
B|---------------------------------------|
G|-14-16--14-16--14-16--11-12-11-12-11-7-|
D|-0--0---0--0---0--0---0--0--0--0--0--0-|
A|---------------------------------------|
E|---------------------------------------|

E|-12-12----12-12----12-12----12-12----|
B|-------------------------------------|
G|-9--9-x-x-9--9-x-x-9--9-x-x-9--9-x-x-|
D|-------------------------------------|
A|-7--7-x-x-7--7-x-x-7--7-x-x-7--7-x-x-|
E|-------------------------------------|


Chorus:
E|-------------------------------------------------------|
B|-------------------------------------------------------|
G|-6-7-7-6-4--6-4-6-7-7-6-4--6-4-6-7-7-6-4--6-4-2-2--2-2-|
D|-0-0-0-0-0--0-0-0-0-0-0-0--0-0-0-0-0-0-0--0-0-0-0--0-0-| x2
A|-------------------------------------------------------|
E|-------------------------------------------------------|


Bridge:

E|------2--------2--------2--------|
B|-3--3---3-3--3---3--3-3---3-2--3-|
G|---------------------------------|
D|---------------------------------| x3
A|---------------------------------|
E|---------------------------------|

E|------2--------2----------0-|
B|-3--3---3-3--3---3--3-3-3-3-|
G|--------------------------2-|
D|--------------------------0-|
A|--------------------------0-|
E|----------------------------|

D,E,A x3

end on D

The ending I'm a bit unsure of..

email/myspace me if you have any problems/wanna discuss 90's canadian indie rock :D

winnorulz@hotmail.com
www.myspace.com/winnorulz