Song name
# A B C D E F G H I J K L M N O P Q R S T U V W X Y Z

Radiohead - Worrywort tab

-------------------------------------------------------------------------------
			     Worrywort - Radiohead
-------------------------------------------------------------------------------
Tabbed by: Zimmer
Email: permisscuouspriest@hotmail.com


I discovered there was no tab available for this dreamily beautiful song so i felt 
to do something about it. Although there is no guitar in the song, it leaves the player free 
experiment with their own effects. Enjoy
Tuning:

Riff 1
e|----------------------------------------------------------------------------|
B|----------------------------------------------------------------------------|
G|----------4-----------------------------------------------------------------|
D|----------------7-------4h5------7--------------------------7---------------|
A|------5---------------------------------5----------(5)5---------------------|
D|-----(0)-------------------------------------------(0)----------------------|

Riff 2
e|----------------------------------------------------------------------------|
B|----------------------------------------------------------------------------|
G|----------4-----------------------------7-----------------------------------|
D|----------------7-------4h5------7--------------------------7---------------|
A|------5-------------------------------------------(5)5----------------------|
D|-----(0)-------------------------------------------(0)----------------------|
Tap to rate this tab
 
# A B C D E F G H I J K L M N O P Q R S T U V W X Y Z