Song name
# A B C D E F G H I J K L M N O P Q R S T U V W X Y Z

Radiohead - Packt Like Sardines In A Crushd Tin Box tab

Radiohead
Packt Like Sardines In A Crushd Tin Box

Standard Tuning

Guitar Part 1
e------------------------------------------|
B------------------------------------------|
G------------------------------------------|
D---5-5-5-----5-5-----5---5-----5----------|
A-----7-5-----5-4-----4-2-------4-2--------|
E-------------------------3-----5-0--------|


Guitar Part 2
e---------------------------------0--------|
B-----5-5-----5-5-----5---5-----5-0--------|
G---------------------------------0--------|
D-----2---------------------------2--------|
A-------5-----5-4-----4-2-------4-2--------|
E-------------------------3-----5-0--------|


Both parts are played interchangeably for the whole song

Tabbed By Duate
Tap to rate this tab
 
# A B C D E F G H I J K L M N O P Q R S T U V W X Y Z