Song name
# A B C D E F G H I J K L M N O P Q R S T U V W X Y Z

Radiohead - Pearly tab

----------------------------------------------------------------------------
                        Radiohead-Pearly
----------------------------------------------------------------------------

Standar tuning


Intro (0:12)

Guitar 1
e-----------------------------------------------------------|
B------------------------x3-x2--------------------------3-3-|
G------------------------x3-x2--------------------------3-3-|
D----------/3-2-0--------x3-x2------------/3-2-0--------3-3-|
A-0------0--------3-0----x1-x0--0-------0--------3-0----1-1-|
E-----------------------------------------------------------|


Verse (0:29)

Guitar 1
e-------------------------------------------|
B----1--------------------0-----------------|
G----2--------------------1-----------------|
D-----------/3-2-0----------------/3-2-0----|
A-0-------0--------3---------------------3--|
E--------------------0---------0------------|
|
|
|Guitar 2
e---0-0-0-0---0-0-0-0----0-0-0-0-0-0-0-0-0--|
B---1-1-1-1---1-1-1-1----0-0-0-0---0-0-0-0--|
G---2-2-2-2---2-2-2-2----1-1-1-1---1-1-1-1--|
D---2-2-2-2---2-2-2-2----2-2-2-2---2-2-2-2--|
A-0---------0------------2-2-2-2---2-2-2-2--|
E----------------------0---------0----------|


e-------------------------------------------|
B----3--------------------3-----------------|
G----0--------------------2-----------------|
D-----------/3-2-0--------------------------|
A------------------3------------------------|
E--3------3----------2--------------3--4--4-|
|
|
|
e---3-3-3-3---3-3-3-3----2-2-2-2---2-2-0-0--|
B---3-3-3-3---3-3-3-3----3-3-3-3---3-3-0-0--|
G---0-0-0-0---0-0-0-0----2-2-2-2---2-2-1-1--|
D---0-0-0-0---0-0-0-0----0-0-0-0---0-0-2-2--|
A---2-2-2-2---2-2-2-2----0-0-0-0---0-0-2-2--|
E-3---------3----------2---------2-----0-0--|

e-------------------------------------------|
B----1--------------------0-----------------|
G----2--------------------1-----------------|
D-----------/3-2-0----------------/3-2-0----|
A-0-------0--------3---------------------3--|
E--------------------0---------0------------|
|
|
|
e---0-0-0-0---0-0-0-0----0-0-0-0-0-0-0-0-0--|
B---1-1-1-1---1-1-1-1----0-0-0-0---0-0-0-0--|
G---2-2-2-2---2-2-2-2----1-1-1-1---1-1-1-1--|
D---2-2-2-2---2-2-2-2----2-2-2-2---2-2-2-2--|
A-0---------0------------2-2-2-2---2-2-2-2--|
E----------------------0---------0----------|


e-------------------------------------------|
B----3--------------------3-----------------|
G----0--------------------2-----------------|
D-----------/3-2-0-------------------/3-2-0-|
A------------------3------------------------|
E--3------3----------2-------------2--------|
|
|
|
e---3-3-3-3---3-3-3-3----2-2-2-2---2-2-2-2--|
B---3-3-3-3---3-3-3-3----3-3-3-3---3-3-3-3--|
G---0-0-0-0---0-0-0-0----2-2-2-2---2-2-2-2--|
D---0-0-0-0---0-0-0-0----0-0-0-0---0-0-0-0--|
A---2-2-2-2---2-2-2-2----0-0-0-0---0-0-0-0--|
E-3---------3----------2---------2----------|


Chorus (1:01)

Guitar 1
e------------------------------------------|
B---------1----------------1---------------|
G-2-------2----------0-----0---------------|
D-3-------3---/3-2-0-2-----2-----/3-2-0----|
A-3------------------3---------3-----------|
E-1---------1------------------------------|
|
|
|Guitar 22
e--1-1-1-1-1-1-1-1--0-0-0-0-0-0-0-0-0-|
B--1-1-1-1-1-1-1-1--1-1-1-1-1-1-1-1-1-|
G--2-2-2-2-2-2-2-2--0-0-0-0-0-0-0-0-0-|
D--3-3-3-3-3-3-3-3--2-2-2-2-2-2-2-2-2-|
A--3-3-3-3-3-3-3-3--3-3-3-3-3-3-3-3-3-|
E--1-1-1-1-1-1-1-1--3-3-3-3-3-3-3-3-3-|


e-----------------------------------------------------|
B----13~-13~-13~-13~--13~-------12~-12~-12~-12~--12---|
G-/14--14--14--14---14-----14-13--13--13--13---13-----|
D-----------------------------------------------------|
A-----------------------------------------------------|
E-----------------------------------------------------|
|
|
|
e--0-0-0-0-0-0-0-0-0-0-0----0-0-0-0-0-0-0-0-0-0-0-0--|
B--1-1-1-1-1-1-1-1-1-1-1----0-0-0-0-0-0-0-0-0-0-0-0--|
G--2-2-2-2-2-2-2-2-2-2-2----1-1-1-1-1-1-1-1-1-1-1-1--|
D--2-2-2-2-2-2-2-2-2-2-2----2-2-2-2-2-2-2-2-2-2-2-2--|
A--0-0-0-0-0-0-0-0-0-0-0----2-2-2-2-2-2-2-2-2-2-2-2--|
E---------------------------0-0-0-0-0-0-0-0-0-0-0-0--|

Verse 2 (1:18)

Guitar 1
e-------0-----------------------------------|
B----1--1-----------------0-----------------|
G----2--------------------1-----------------|
D-----------/3-2-0----------------/3-2-0----|
A-0-------0--------3---------------------3--|
E--------------------0---------0------------|
|
|
|Guitar 2
e---0-0-0-0---0-0-0-0----0-0-0-0-0-0-0-0-0--|
B---1-1-1-1---1-1-1-1----0-0-0-0---0-0-0-0--|
G---2-2-2-2---2-2-2-2----1-1-1-1---1-1-1-1--|
D---2-2-2-2---2-2-2-2----2-2-2-2---2-2-2-2--|
A-0---------0------------2-2-2-2---2-2-2-2--|
E----------------------0---------0----------|


e-------------------------------------------|
B----3--------------------3-----------------|
G----0--------------------2-----------------|
D-----------/3-2-0--------------------------|
A------------------3-----------4-4--5-5--6--|
E--3------3----------2---------2-2--3-3--4--|
|
|
|
e---3-3-3-3---3-3-3-3----2-2-2-2---2-2-0-0--|
B---3-3-3-3---3-3-3-3----3-3-3-3---3-3-0-0--|
G---0-0-0-0---0-0-0-0----2-2-2-2---2-2-1-1--|
D---0-0-0-0---0-0-0-0----0-0-0-0---0-0-2-2--|
A---2-2-2-2---2-2-2-2----0-0-0-0---0-0-2-2--|
E-3---------3----------2---------2-----0-0--|

e-------------------------------------------|
B----1--------------------0-----------------|
G----2--------------------1-----------------|
D-----------/3-2-0----------------/3-2-0--0-|
A-0-------0--------3------------------------|
E--------------------0---------0------------|
|
|
|
e---0-0-0-0---0-0-0-0----0-0-0-0-0-0-0-0-0--|
B---1-1-1-1---1-1-1-1----0-0-0-0---0-0-0-0--|
G---2-2-2-2---2-2-2-2----1-1-1-1---1-1-1-1--|
D---2-2-2-2---2-2-2-2----2-2-2-2---2-2-2-2--|
A-0---------0------------2-2-2-2---2-2-2-2--|
E----------------------0---------0----------|


e-------------------------------------------|
B----3--------------------3-----------------|
G----0--------------------2-----------------|
D-----------/3-2-0-------------------/3-2-0-|
A------------------3------------------------|
E--3------3----------2-------------2--------|
|
|
|
e---3-3-3-3---3-3-3-3----2-2-2-2---2-2-2-2--|
B---3-3-3-3---3-3-3-3----3-3-3-3---3-3-3-3--|
G---0-0-0-0---0-0-0-0----2-2-2-2---2-2-2-2--|
D---0-0-0-0---0-0-0-0----0-0-0-0---0-0-0-0--|
A---2-2-2-2---2-2-2-2----0-0-0-0---0-0-0-0--|
E-3---------3----------2---------2----------|


Chorus (1:51)

Guitar 1
e------------------------------------------|
B---------1----------------1---------------|
G-2-------2----------0-----0---------------|
D-3-------3---/3-3-2-2-----2-----/3-2-0----|
A-3------------------3---------3-----------|
E-1---------1------------------------------|
|
|
|Guitar 22
e--1-1-1-1-1-1-1-1--0-0-0-0-0-0-0-0-0-|
B--1-1-1-1-1-1-1-1--1-1-1-1-1-1-1-1-1-|
G--2-2-2-2-2-2-2-2--0-0-0-0-0-0-0-0-0-|
D--3-3-3-3-3-3-3-3--2-2-2-2-2-2-2-2-2-|
A--3-3-3-3-3-3-3-3--3-3-3-3-3-3-3-3-3-|
E--1-1-1-1-1-1-1-1--3-3-3-3-3-3-3-3-3-|


e-----------------------------------------------------|
B----13~-13~-13~-13~--13~-------12~-12~-12~-12~---12\-|
G-/14--14--14--14---14-----14-13--13--13--13---13-13\-|
D-----------------------------------------------------|
A-----------------------------------------------------|
E-----------------------------------------------------|
|
|
|
e--0-0-0-0-0-0-0-0-0-0-0----0-0-0-0-0-0-0-0-0-0-0-0--|
B--1-1-1-1-1-1-1-1-1-1-1----0-0-0-0-0-0-0-0-0-0-0-0--|
G--2-2-2-2-2-2-2-2-2-2-2----1-1-1-1-1-1-1-1-1-1-1-1--|
D--2-2-2-2-2-2-2-2-2-2-2----2-2-2-2-2-2-2-2-2-2-2-2--|
A--0-0-0-0-0-0-0-0-0-0-0----2-2-2-2-2-2-2-2-2-2-2-2--|
E---------------------------0-0-0-0-0-0-0-0-0-0-0-0--|


(2:08)

Guitar 2
e---------0---------------0----------------0--------------0-------|
B-------1---1-----------1---1------------0---0----------0---0-----|
G------2-------2-------0-------0--------1-------1------1------1---|
D-----2--------2------2--------2-------2--------2-2---2-------2-2-|
A-0--0------------3--3----------------2-----------2--2----------2-|
E---------------------------------0--0--------------0-------------|
|
|
|Guitar 3
e-----------------------------------------------------------------|
B-----------------------------------------------------------------|
G-----------------------------------------------------------------|
D-------------------------------------------------------------2---|
A-----------------------------------------------------------------|
E-----------------------------------------------------------------|


Guitar 2
e---------0---------------0----------------0--------------0-------|
B-------1---1-----------1---1------------0---0----------0---0-----|
G------2-------2-------0-------0--------1-------1------1------1---|
D-----2--------2------2--------2-------2--------2-2---2-------2-2-|
A-0--0------------3--3----------------2-----------2--2----------2-|
E---------------------------------0--0--------------0-------------|
|
|
|Guitar 3
e------------------------------------------------------------------|
B------------------------------------------------------------------|
G----2b3r2---------------------------------------------------------|
D---------------------2b3r2-------------------------------2b3r2----|
A-----------------3------------------------------------------------|
E----------------------------------0-------------------------------|


Guitar 2
e---------0---------------0----------------0--------------0-------|
B-------1---1-----------1---1------------0---0----------0---0-----|
G------2-------2-------0-------0--------1-------1------1------1---|
D-----2--------2------2--------2-------2--------2-2---2-------2-2-|
A-0--0------------3--3----------------2-----------2--2----------2-|
E---------------------------------0--0--------------0-------------|
|
|
|Guitar 3
e------------------------------------------------------------------|
B------------------------------------------------------------------|
G----2b3r2---------------------------------------------------------|
D---------------------2b3r2---------------------------------x/-----|
A-----------------3----------------2------------------------x/-----|
E----------------------------------0-------------------------------|


Guitar 2
e---------0---------------0----------------0--------------0-------|
B-------1---1-----------1---1------------0---0----------0---0-----|
G------2-------2-------0-------0--------1-------1------1------1---|
D-----2--------2------2--------2-------2--------2-2---2-------2-2-|
A-0--0------------3--3----------------2-----------2--2----------2-|
E---------------------------------0--0--------------0-------------|
|
|
|Guitar 3
e------------------------------------------------------------------|
B---------------------5b6r5----------------------------------------|
G----2b3r2--------5------------------------------------------------|
D----------------------------------2-------------------------------|
A----------------------------------2-------------------------------|
E----------------------------------0-------------------------------|


(2:39)

Guitar 1
e--------12--12--12-------12--12--12-------12--12--12--12--12--12--12-|
B------15--15--15--13---15--15--15--12---15--15--15--15--15--15--15---|
G-14------------------------------------------------------------------|
D---------------------------------------------------------------------|
A---------------------------------------------------------------------|
E---------------------------------------------------------------------|
|
|
|
Guitar 2
e-0--0-0-0-0-0-0-0-0-0-0--0-0-0-0-0-0-0-0-0--0-0-0-0-0-0-0-0-0-0-0---|
B-1--1-1-1-1-1-1-1-1-1-1--1-1-1-1-1-1-1-1-1--0-0-0-0-0-0-0-0-0-0-0---|
G-2--2-2-2-2-2-2-2-2-2-0--0-0-0-0-0-0-0-0-0--1-1-1-1-1-1-1-1-1-1-1---|
D-2--2-2-2-2-2-2-2-2-2-2--2-2-2-2-2-2-2-2-2--2-2-2-2-2-2-2-2-2-2-2---|
A-0--0-0-0-0-0-0-0-0-0-3--3-3-3-3-3-3-3-3-2--2-2-2-2-2-2-2-2-2-2-2---|
E-----------------------------------------0--0-0-0-0-0-0-0-0-0-0-0---|
|
|
|Guitar 3
e-------------------------------------------------0----------------|
B-------------------------------------------------1----------------|
G----2b3r2----------------------------------------2----------------|
D-----------------------2b3r2-----------2---------2------------2---|
A--------------------3------------------2--------------------------|
E---------------------------------------0--------------------------|


Guitar 1
e--------12--12--12-------12--12--12-------12--12--12--12--12--12--12-|
B------15--15--15--13---15--15--15--12---15--15--15--15--15--15--15---|
G-14------------------------------------------------------------------|
D---------------------------------------------------------------------|
A---------------------------------------------------------------------|
E---------------------------------------------------------------------|
|
|
|
Guitar 2
e-0--0-0-0-0-0-0-0-0-0-0--0-0-0-0-0-0-0-0-0--0-0-0-0-0-0-0-0-0-0-0---|
B-1--1-1-1-1-1-1-1-1-1-1--1-1-1-1-1-1-1-1-1--0-0-0-0-0-0-0-0-0-0-0---|
G-2--2-2-2-2-2-2-2-2-2-0--0-0-0-0-0-0-0-0-0--1-1-1-1-1-1-1-1-1-1-1---|
D-2--2-2-2-2-2-2-2-2-2-2--2-2-2-2-2-2-2-2-2--2-2-2-2-2-2-2-2-2-2-2---|
A-0--0-0-0-0-0-0-0-0-0-3--3-3-3-3-3-3-3-3-2--2-2-2-2-2-2-2-2-2-2-2---|
E-----------------------------------------0--0-0-0-0-0-0-0-0-0-0-0---|
|
|
|Guitar 3
e-------------------------------------------------0----------------|
B-------------------------------------------------1----------------|
G----2b3r2----------------------------------------2----------------|
D-----------------------2b3r2-----------2---------2------------2---|
A--------------------3------------------2--------------------------|
E---------------------------------------0--------------------------|

Repeat and fade to the end.
Tap to rate this tab
# A B C D E F G H I J K L M N O P Q R S T U V W X Y Z