Song name
# A B C D E F G H I J K L M N O P Q R S T U V W X Y Z

Radiohead - Go To Sleep tab

-----------------------------------------------------------------------------
                          RADIOHEAD - GO TO SLEEP
-----------------------------------------------------------------------------

tabbed by: stellar_legs a.k.a. Jesus Bixlar Yorke the III
e-mail: uncle_stellar@hotmail.com

tuning standard

I have to perform this song for my Instrumental Ensemble class Monday, so I
thought I would sit here and write a really good tab for it. This is straight
from the HTTT transcription book, so if you have any beef with the way it's
written here, or think that the tab sucks, then take it up with Radiohead, cuz
they wrote it.

Intro (acoustic)
e---------------3-------------------------------------------------|
B---------------3------------------6--------6--------6------8-----|
G------0--------0-----0----------0-0------0-0------0-0------0--0--|
D------0--0--0-----0--0----------0--------0--------0-----------0--|
A------------------0----------------------------------------------|
E--1/3----3--3----------------6--------5--------8--------7--------|

e---------------3--1-----0----------------------------------------|
B---------3-----3--3---------------6--------6--------6------8-----|
G---------0-----0----------------0-0------0-0------0-0------0--0--|
D---0--0--0--0--------0----------0--------0--------0-----------0--|
A-----------------------------------------------------------------|
E---3--3-----3--------3-------6--------5--------8--------7--------|

e--------3--------3---------------------1---------1----------1------3-----|
B--------3--------3---3---------------------------------------------------|
G--------0--------0---0---0---------0---0------0--0-------0--0------0--0--|
D---0----0----0---0---0---0---------0----------0----------0------------0--|
A--------------------------------1----------0-----------3---------2-------|
E---3---------3-----------------------------------------------------------|

Chorus (electric w/ delay and reverb)
e-----6--------8--------6--------5----|
B-----6--------8--------6--------5----|
G-----7--------9--------7--------5----|
D-------------------------------------|
A-------------------------------------|
E-------------------------------------|
If your playing on an acoustic (like me) then just lightly strum these chords.

2nd Verse
e--------------------------------------------------------------|
B--------------------------------------------------------------|
G--------------------------------------------------------------|
D---------------7--5-------------------7--5-------------7--5---|
A----5-----x--------------3---5----x------------3---5----------|
E----3-----x----6--6------3---3----x---6--6-----3---3---6--6---|

e-----------------------------|
B-----------------------------|
G-----------------------------|
D-----------------------------|
A---8--7-------3--5--3--3--3--|
E---8--8-------3--3--3--3--3--|

Repeat Chorus

Electric guitar lick after the Choruses
e-----------------------------------------------------------------------|
B---6^-----8^-------0--------15----------6^-----8^-------0-------15-----|
G---8^----10^-------0---17^--------------8^----10^-------0---17^--------|
D---------------------------------7----------------------------------7--|
A-----------------------------------------------------------------------|
D---------------3------------------------------------3------------------|

Solo (electric, distortion, reverb, and modulation)
e---------------------------------------------------------------|
B---------------------------------------------------------------|
G---------------------------------------------------------------|
D---------------------------------------------------------------|
A---------------------------------------------------------------|
E----6----6/3--3--3-3-3---/10/3---6/10/8/11/10/16--15/3---3/8---|

Slide around and cause some gain until the 2nd part of the solo.

e---------------------------------------------------------------------------|
B---------------------------------------------------------------------------|
G---------------------------------------------------------------------------|
D---10----------------------------------------------------------------------|
A------10/17----17^-----17-------------------------------17-----------------|
E--------------------------15-15-15-15--15-15--13-13-13------13----12-10-12-|

e---------------------------------------|
B---------------------------------------|
G---------------------------------------|
D---------------------------------------|
A---------------------------------------|
E---13--12--10-10---12--10-12---10--8---|

End with 2nd Verse

Fin.
Tap to rate this tab
# A B C D E F G H I J K L M N O P Q R S T U V W X Y Z