Guitaretab - guitar tabs
Song name
# A B C D E F G H I J K L M N O P Q R S T U V W X Y Z

Radiohead - House Of Cards tab

Capo on 3rd Fret. I think this is 100%...first proper tab

e|----------------------------------|
b|----------------------------------|
g|-9-9---9---9-9-9--9-9---9---9-9-9-|
d|-x-x---x---x-x-x--x-x---x---x-x-x-|
a|-9-9---9---9-7-0--9-9---9---7-7-0-|
d|-x-x---x---x-x-x--x-x---x---x-x-x-|
          
e|----------------------------------|
b|----------------------------------|
g|-7-7---7---7-7-7--7-7---7---7-7-7-|
d|-x-x---x---x-x-x--x-x---x---x-x-x-|
a|-9-9---9---9-7-0--9-9---9---7-7-0-|
d|-x-x---x---x-x-x--x-x---x---x-x-x-|

e|------------------|
b|------------------|
g|------------------|
d|-----2-2--2--9-12-|
a|-----2-2--2-------|
d|-0s2-2-2--2--9-12-| x2

e|----------------------------------|
b|----------------------------------|
g|-9-9---9---9-9-9--7-7---7---7-7-7-|
d|-x-x---x---x-x-x--x-x---x---x-x-x-|
a|-9-9---9---9-7-0--9-9---9---7-7-0-|
d|-x-x---x---x-x-x--x-x---x---x-x-x-|

e|------------------|
b|------------------|
g|------------------|
d|-----2-2--2--9-12-|
a|-----2-2--2-------|
d|-0s2-2-2--2--9-12-| x2

e|----------------------------------|
b|----------------------------------|
g|-9-9---9---9-9-9--9-9---9---9-9-9-|
d|-x-x---x---x-x-x--x-x---x---x-x-x-|
a|-9-9---9---9-7-0--9-9---9---7-7-0-|
d|-x-x---x---x-x-x--x-x---x---x-x-x-|

e|----------------------------------------|
b|------------------0-0-------------------|
g|-7-7---7---7-7-7--5-4---9-9---9---9-9-9-|
d|-x-x---x---x-x-x--0-0---x-x---x---x-x-x-|
a|-9-9---9---7-7-0--5-5---9-9---9---9-7-0-|
d|-x-x---x---x-x-x--5-5---x-x---x---x-x-x-|

e|-----------------|
b|-----------------|
g|-9-9---9---9-9-9-|
d|-x-x---x---x-x-x-|
a|-9-9---9---7-7-0-|
d|-x-x---x---x-x-x-|

e|------------------------|
b|------------------0-0-0-|
g|-7-7---7---7-7-7--5-5-4-|
d|-x-x---x---x-x-x--0-0-0-|
a|-9-9---9---9-7-0--5-5-5-|
d|-x-x---x---x-x-x--5-5-5-|

e|----------------------------------|
b|----------------------------------|
g|-9-9---9---9-9-9--9-9---9---9-9-9-|
d|-x-x---x---x-x-x--x-x---x---x-x-x-|
a|-9-9---9---9-7-0--9-9---9---7-7-0-|
d|-x-x---x---x-x-x--x-x---x---x-x-x-|

e|------------------------|
b|------------------0-0-0-|
g|-7-7---7---7-7-7--5-5-4-|
d|-x-x---x---x-x-x--0-0-0-|
a|-9-9---9---9-7-0--5-5-5-|
d|-x-x---x---x-x-x--5-5-5-|

e|----------------------------------|
b|----------------------------------|
g|-9-9---9---9-9-9--9-9---9---9-9-9-|
d|-x-x---x---x-x-x--x-x---x---x-x-x-|
a|-9-9---9---9-7-0--9-9---9---7-7-0-|
d|-x-x---x---x-x-x--x-x---x---x-x-x-|

e|------------------------|
b|------------------0-0-0-|
g|-7-7---7---7-7-7--5-5-4-|
d|-x-x---x---x-x-x--0-0-0-|
a|-9-9---9---9-7-0--5-5-5-|
d|-x-x---x---x-x-x--5-5-5-|

e|----------------------------------|
b|----------------------------------|
g|-9-9---9---9-9-9--9-9---9---9-9-9-|
d|-x-x---x---x-x-x--x-x---x---x-x-x-|
a|-9-9---9---9-7-0--9-9---9---7-7-0-|
d|-x-x---x---x-x-x--x-x---x---x-x-x-|

e|-----------------------|
b|---0-0---0---0---0---0-|
g|---5-5---5---5---5---5-|
d|---0-0---0---0---0---0-|
a|---5-5---5---5---5---5-|
d|-5-5-5---5---5---5---5-|

e|---------------------------------|
b|---------------------------------|
g|-9-9---9---9-9-9-9-9---7---7-7-7-|
d|-x-x---x---x-x-x-x-x---x---x-x-x-|
a|-9-9---9---9-7-0-9-9---9---9-7-0-|
d|-x-x---x---x-x-x-x-x---x---x-x-x-|

e|------------------|
b|------------------|
g|------------------|
d|-----2-2--2--9-12-|
a|-----2-2--2-------|
d|-0s2-2-2--2--9-12-| x2

e|----------------------------------|
b|----------------------------------|
g|-9-9---9---9-9-9--9-9---9---9-9-9-|
d|-x-x---x---x-x-x--x-x---x---x-x-x-|
a|-9-9---9---9-7-0--9-9---9---7-7-0-|
d|-x-x---x---x-x-x--x-x---x---x-x-x-|

e|------------------|
b|------------------|
g|------------------|
d|-----2-2--2--9-12-|
a|-----2-2--2-------|
d|-0s2-2-2--2--9-12-| x2

e|---------------------------------|
b|---------------------------------|
g|-9-9---9---9-9-9-9-9---7---7-7-7-|
d|-x-x---x---x-x-x-x-x---x---x-x-x-|
a|-9-9---9---9-7-0-9-9---9---9-7-0-|
d|-x-x---x---x-x-x-x-x---x---x-x-x-|
[ Tab from: http://www.guitaretab.com/r/radiohead/140386.html ]
e|------------------------|
b|------------------0-0-0-|
g|-7-7---7---7-7-7--5-5-4-|
d|-x-x---x---x-x-x--0-0-0-|
a|-9-9---9---9-7-0--5-5-5-|
d|-x-x---x---x-x-x--5-5-5-|

e|----------------------------------|
b|----------------------------------|
g|-9-9---9---9-9-9--9-9---9---9-9-9-|
d|-x-x---x---x-x-x--x-x---x---x-x-x-|
a|-9-9---9---9-7-0--9-9---9---7-7-0-|
d|-x-x---x---x-x-x--x-x---x---x-x-x-|

e|-------|
b|-0-0-0-|
g|-5-5-4-|
d|-0-0-0-|
a|-5-5-5-|
d|-5-5-5-|

e|----------------------------------|
b|----------------------------------|
g|-7-7---7---7-7-7--9-9---9---9-9-9-|
d|-x-x---x---x-x-x--x-x---x---x-x-x-|
a|-9-9---9---9-7-0--9-9---9---9-7-0-|
d|-x-x---x---x-x-x--x-x---x---x-x-x-|

e|----------------------------------|
b|----------------------------------|
g|-9-9---9---9-9-9-|
d|-x-x---x---x-x-x-|
a|-9-9---9---7-7-0-|
d|-x-x---x---x-x-x-|

e|-------|
b|-0-0-0-|
g|-5-5-4-|
d|-0-0-0-|
a|-5-5-5-|
d|-5-5-5-|

e|----------------------------------|
b|----------------------------------|
g|-7-7---7---7-7-7--7-7---7---7-7-7-|
d|-x-x---x---x-x-x--x-x---x---x-x-x-|
a|-9-9---9---9-7-0--9-9---9---7-7-0-|
d|-x-x---x---x-x-x--x-x---x---x-x-x-|

e|-------|
b|-0-0-0-|
g|-5-5-4-|
d|-0-0-0-|
a|-5-5-5-|
d|-5-5-5-|

e|----------------------------------|
b|----------------------------------|
g|-9-9---9---9-9-9--9-9---9---9-9-9-|
d|-x-x---x---x-x-x--x-x---x---x-x-x-|
a|-9-9---9---9-7-0--9-9---9---7-7-0-|
d|-x-x---x---x-x-x--x-x---x---x-x-x-|

e|-----------------------|
b|---0-0---0---0---0---0-|
g|---5-5---5---5---5---5-|
d|---0-0---0---0---0---0-|
a|---5-5---5---5---5---5-|
d|-5-5-5---5---5---5---5-|

e|---------------------------------|
b|---------------------------------|
g|-9-9---9---9-9-9-7-7---7---7-7-7-|
d|-x-x---x---x-x-x-x-x---x---x-x-x-|
a|-9-9---9---9-7-0-9-9---9---9-7-0-|
d|-x-x---x---x-x-x-x-x---x---x-x-x-|

e|------------------|
b|------------------|
g|------------------|
d|-----2-2--2--9-12-|
a|-----2-2--2-------|
d|-0s2-2-2--2--9-12-| x2

e|----------------------------------|
b|----------------------------------|
g|-9-9---9---9-9-9--9-9---9---9-9-9-|
d|-x-x---x---x-x-x--x-x---x---x-x-x-|
a|-9-9---9---9-7-0--9-9---9---7-7-0-|
d|-x-x---x---x-x-x--x-x---x---x-x-x-|

e|------------------|
b|------------------|
g|------------------|
d|-----2-2--2--9-12-|
a|-----2-2--2-------|
d|-0s2-2-2--2--9-12-| x2

e|----------------------------------|
b|----------------------------------|
g|-9-9---9---9-9-9--9-9---9---9-9-9-|
d|-x-x---x---x-x-x--x-x---x---x-x-x-|
a|-9-9---9---9-7-0--9-9---9---7-7-0-|
d|-x-x---x---x-x-x--x-x---x---x-x-x-|

e|------------------|
b|------------------|
g|------------------|
d|-----2-2--2--9-12-|
a|-----2-2--2-------|
d|-0s2-2-2--2--9-12-| x2

e|----------------------------------|
b|----------------------------------|
g|-9-9---9---9-9-9--9-9---9---9-9-9-|
d|-x-x---x---x-x-x--x-x---x---x-x-x-|
a|-9-9---9---9-7-0--9-9---9---7-7-0-|
d|-x-x---x---x-x-x--x-x---x---x-x-x-|

e|------------------|
b|------------------|
g|------------------|
d|-----2-2--2--9-12-|
a|-----2-2--2-------|
d|-0s2-2-2--2--9-12-| x2

e|---------------------------------|
b|---------------------------------|
g|-9-9---9---9-9-9-7-7---7---7-7-7-|
d|-x-x---x---x-x-x-x-x---x---x-x-x-|
a|-9-9---9---9-7-0-9-9---9---9-7-0-|
d|-x-x---x---x-x-x-x-x---x---x-x-x-|

e|------------------|
b|------------------|
g|------------------|
d|-----2-2--2--9-12-|
a|-----2-2--2-------|
d|-0s2-2-2--2--9-12-| x2

e|----------------------------------|
b|----------------------------------|
g|-9-9---9---9-9-9--7-7---7---7-7-7-|
d|-x-x---x---x-x-x--x-x---x---x-x-x-|
a|-9-9---9---9-7-0--9-9---9---7-7-0-|
d|-x-x---x---x-x-x--x-x---x---x-x-x-|

e|------------------|
b|------------------|
g|------------------|
d|-----2-2--2--9-12-|
a|-----2-2--2-------|
d|-0s2-2-2--2--9-12-| x2

e|----------------------------------|
b|----------------------------------|
g|-9-9---9---9-9-9--9-9---9---9-9-9-|
d|-x-x---x---x-x-x--x-x---x---x-x-x-|
a|-9-9---9---9-7-0--9-9---9---7-7-0-|
d|-x-x---x---x-x-x--x-x---x---x-x-x-|

e|-----------------|
b|-----------------|
g|-7-7---7---7-7-7-|
d|-x-x---x---x-x-x-|
a|-9-9---9---9-7-0-|
d|-x-x---x---x-x-x-|
Related for House Of Cards tab
House Of Cards chords by Radiohead