Song name
# A B C D E F G H I J K L M N O P Q R S T U V W X Y Z

Radiohead - Karma Police tab

----------------------------------------------------------------------------
	                KARMA POLICE - RADIOHEAD
----------------------------------------------------------------------------
Tabbed by: timocarm
Tuning: Standard

Here's an easy tab for Karma Police. Just put the parts together and keep the
same ryhthm and it sounds dead on.

e|----0-----0--------------3-3--0--0--0--0--------------3-3--0--0--2--2--3-|
B|----1-----1--------------0-0--1--1--1--1--------------0-0--1--1--3--3--3-|
G|----2-----2--0--0--------0-0--2--2--2--2--0--0--------0-0--2--2--2--2--0-|
D|----2-----0--2--2--------0-0--2--2--3--3--2--2--------0-0--2--2--0--0--0-|
A|----0-----0--2--2--------2-2--0--0--3--3--2--2--------2-2--0--0--------2-|
E|-0--0--2--2--0--0--2--3--3-3--0--0--1--1--0--0--2--3--3-3--0--0--------3-|
   v  v  v  v  v  v  v  v  v ^  v  v  v  v  v  v  v  v  v ^  v  v  v  v  v  

e|-3--0--0--0------0-0-0-0-0-----------------------------------------------|
B|-3--1--1--1--h---1-1-1-1-1--1--h-----------------------------------------|
G|-0--0--0--2--o---2-2-2-2-2--2--o-----------------------------------------|
D|-0--2--0--2--l---2---2---2--2--l-----------------------------------------|
A|-0--3--2--0--d--------------0--d-----------------------------------------|
E|-2--0--0--0-----------------0--------------------------------------------|
    v  v  v      v ^ v ^ v  v

This is what you get...

e|-0--0--0--0--0--2--2--2--2--2--3--3--3--3--3--2--2--2--2--2--------------|
B|-1--1--1--1--1--3--3--3--3--3--3--3--3--3--3--2--2--2--2--2--------------|
G|-0--0--0--0--0--2--2--2--2--2--0--0--0--0--0--3--3--3--3--3--------------|
D|-2--2--2--2--2--0--0--0--0--0--0--0--0--0--0--4--4--4--4--4--------------|
A|-3--3--3--3--3-----------------2--2--2--2--2--4--4--4--4--4--------------|
E|-0--0--0--0--0-----------------3--3--3--3--3--2--2--2--2--2--------------|
   v  v  v  v  ^  V  V  v  v  ^  V  V  v  v  ^  V  V  v  v  ^

When you mess with us...

e|-0--0--0 -0--0--0--0--0--0--0--2--2--2--2--2--2--2--2--2--2--------------|
B|-1--1--1--1--1--1--1--1--1--1--3--3--3--3--3--3--3--3--3--3--------------|
G|-0--0--0--0--0--0--0--0--0--0--4--4--4--4--4--2--2--2--2--2--------------|
D|-2--2--2--2--2--2--2--2--2--2--4--4--4--4--4--0--0--0--0--0--------------|
A|-3--3--3--3--3--3--3--3--3--3--2--2--2--2--2-----------------------------|
E|-0--0--0--0--0--0--0--0--0--0--2--2--2--2--2-----------------------------|
   v  v  v  v  ^  v  v  v  v  ^  v  v  v  v  ^  v  v  v  v  ^

Phew, for a minute...

e|-2--2--2--2--2--2--2--2--3--3--3--3--2--2--2--2--3--3--3--3--2--2--2--2--|
B|-3--3--3--3--3--3--3--3--0--0--0--0--3--3--3--3--0--0--0--0--3--3--3--3--|
G|-4--4--4--4--2--2--2--2--0--0--0--0--2--2--2--3--0--0--0--0--2--2--2--2--|
D|-4--4--4--4--0--0--0--0--0--0--0--0--0--0--0--0--0--0--0--0--0--0--0--0--|
A|-2--2--2--2--------------2--2--2--2--------------2--2--2--2--------------|
E|-2--2--2--2--------------3--3--3--3--------------3--3--3--3--------------|
   v  v  v  ^  v  v  v  ^  v  v  v  ^  v  v  v  ^  v  v  v  ^  v  v  v  ^

...My se____elf...

e|-0-0--0-0-0-0---------------------------------------------------|
B|-0-0--0-0-0-0---------------------------------------------------|
G|-1-1--1-1-1-1---------------------------------------------------|
D|-2-2--2-2-2-2---------------------------------------------------|
A|-2-2--2-2-2-2---------------------------------------------------|
E|-0-0--0-0-0-0---------------------------------------------------|
   v ^  v ^ v ^
Tap to rate this tab
# A B C D E F G H I J K L M N O P Q R S T U V W X Y Z