Song name
# A B C D E F G H I J K L M N O P Q R S T U V W X Y Z

Radiohead - Lewis Mistreated tab

I was looking for this song a long time ago but many versions were wrong in the outro.

Lewis [mistreated] - Radiohead
My Iron Lung EP (1994)

Intro:

     G                 Cadd9  B/G
E||--3--3--3--3--3--3--3------3--|--3--3--3--3--3--3--3--3--|
B||--3--3--3--3--3--3--3------3--|--3--3--3--3--3--3--3--3--|
G||--0--0--0--0--0--0--0------0--|--0--0--0--0--0--0--0--0--|  x2
D||--0--0--0--0--0--0------------|--0--0--0--0--0--0--------|
A||--------------------3------2--|--------------------3--2--|
E||--3--3--3--3--3--3------------|--3--3--3--3--3--3--------|


Verse 1: (rhythm in verses isn't necessary correct)

    "Bummed out again by your only business friend"
    "The smell of fear is thicker than you think"

     G           G#            A            F#
E||--------------------------|--------------------------|
B||--------------------------|--------------------------|
G||--------------------------|--------------------------| x2
D||--------------------------|--------------------------|
A||--------------------------|--------------------------|
E||--3--3--3--3--4--4--4--4--|--5--5--5--5--2--2--2--2--|

   "Don't do it..."                        "Don't..."

    Caad9        B/G           Asus4/G      G/F#
E||--------3-----------3-----|--------3-----------3-----|
B||--------3--3--------3--3--|--------3--3--------3--3--|
G||-----0-----0-----0-----0--|--------0--0--------0--0--|
D||--------------------------|-----2-----------0--------|
A||--3-----------2-----------|--0-----------------------|
E||--------------------------|--------------2-----------|

    "jump..."

E||--3--3--3--3--3--3--3--3--|--3--3--3--3--3--3--3--3--|
B||--3--3--3--3--3--3--3--3--|--3--3--3--3--3--3--3--3--|
G||--0--0--0--0--0--0--0--0--|--0--0--0--0--0--0--0--0--| x2
D||--0--0--0--0--0--0--------|--0--0--0--0--0--0--------|
A||--------------------3--2--|--------------------3--2--|
E||--3--3--3--3--3--3--------|--3--3--3--3--3--3--------|


Verse 2:

    "Changed shape to fit, in the end you just feel sick"
    "A million love songs under anaesthetic"

     G           G#            A            F#
E||--------------------------|--------------------------|
B||--------------------------|--------------------------|
G||--------------------------|--------------------------| x2
D||--------------------------|--------------------------|
A||--------------------------|--------------------------|
E||--3--3--3--3--4--4--4--4--|--5--5--5--5--2--2--2--2--|

   "Hey don't do it..."                    "Don't..."

    Caad9        B/G           Asus4/G      G/F#
E||--------3-----------3-----|--------3-----------3-----|
B||--------3--3--------3--3--|--------3--3--------3--3--|
G||-----0-----0-----0-----0--|--------0--0--------0--0--|
D||--------------------------|-----2-----------0--------|
A||--3-----------2-----------|--0-----------------------|
E||--------------------------|--------------2-----------|

    "jump..."

     G
E||--3--3--3--3--3--3--3--3--|--3--3--3--3--3--3--3--3--|
B||--3--3--3--3--3--3--3--3--|--3--3--3--3--3--3--3--3--|
G||--0--0--0--0--0--0--0--0--|--0--0--0--0--0--0--0--0--| x2
D||--0--0--0--0--0--0--------|--0--0--0--0--0--0--------|
A||--------------------3--2--|--------------------3--2--|
E||--3--3--3--3--3--3--------|--3--3--3--3--3--3--------|

    "Lewis... save yourself the pain."

     Am       Em
E||--0--------0---------|
B||--1--------0---------|
G||--2--------0---------|
D||--2--------2---------|
A||--0--------2---------|
E||-----------0---------|

   "You'll never"
         "Get there"

     D          C
E||--2--------------------------------------------------|
B||--3----x-x-x-1---x-x-x-1---x-x-x-1---x-x-x-1---1--1--|
G||--2----x-x-x-0---x-x-x-0---x-x-x-0---x-x-x-0---0--0--|
D||-------x-x-x-2---x-x-x-2---x-x-x-2---x-x-x-2---2--2--|
A||-------x-x-x-3---x-x-x-3---x-x-x-3---x-x-x-3---3--3--|
E||-----------------------------------------------------|

    "Lewis... save yourself the pain."

     Am       Em
E||--0--------0---------|
B||--1--------0---------|
G||--2--------0---------|
D||--2--------2---------|
A||--0--------2---------|
E||-----------0---------|

   "It really never"
         "mattered..."
    D          C
E||--2--------------------------------------------------|
B||--3----x-x-x-1---x-x-x-1---x-x-x-1---x-x-x-1---1--1--|
G||--2----x-x-x-0---x-x-x-0---x-x-x-0---x-x-x-0---0--0--|
D||-------x-x-x-2---x-x-x-2---x-x-x-2---x-x-x-2---2--2--|
A||-------x-x-x-3---x-x-x-3---x-x-x-3---x-x-x-3---3--3--|
E||-----------------------------------------------------|

Bridge: (same as intro)

     G                 Cadd9  B/G
E||--3--3--3--3--3--3--3------3--|--3--3--3--3--3--3--3--3--|
B||--3--3--3--3--3--3--3------3--|--3--3--3--3--3--3--3--3--|
G||--0--0--0--0--0--0--0------0--|--0--0--0--0--0--0--0--0--|  x2
D||--0--0--0--0--0--0------------|--0--0--0--0--0--0--------|
A||--------------------3------2--|--------------------3--2--|
E||--3--3--3--3--3--3------------|--3--3--3--3--3--3--------|


Verse 3:

    "We never noticed, we never understood"
    "He just get crushed to fit, he never even smelt out the -"

     G           G#            A            F#
E||--------------------------|--------------------------|
B||--------------------------|--------------------------|
G||--------------------------|--------------------------| x2
D||--------------------------|--------------------------|
A||--------------------------|--------------------------|
E||--3--3--3--3--4--4--4--4--|--5--5--5--5--2--2--2--2--|

   "Best... It's the best, it's the best day of your..."

    Caad9        B/G           Asus4/G      G/F#
E||--------3-----------3-----|--------3-----------3-----|
B||--------3--3--------3--3--|--------3--3--------3--3--|
G||-----0-----0-----0-----0--|--------0--0--------0--0--|
D||--------------------------|-----2-----------0--------|
A||--3-----------2-----------|--0-----------------------|
E||--------------------------|--------------2-----------|

    "life..."

E||--3--3--3--3--3--3--3--3--|--3--3--3--3--3--3--3--3--|
B||--3--3--3--3--3--3--3--3--|--3--3--3--3--3--3--3--3--|
G||--0--0--0--0--0--0--0--0--|--0--0--0--0--0--0--0--0--| x2
D||--0--0--0--0--0--0--------|--0--0--0--0--0--0--------|
A||--------------------3--2--|--------------------3--2--|
E||--3--3--3--3--3--3--------|--3--3--3--3--3--3--------|

    "Lewis... save yourself the pain."

     Am       Em
E||--0--------0---------|
B||--1--------0---------|
G||--2--------0---------|
D||--2--------2---------|
A||--0--------2---------|
E||-----------0---------|

   "You'll never"
         "Get there..."

     D          C
E||--2--------------------------------------------------|
B||--3----x-x-x-1---x-x-x-1---x-x-x-1---x-x-x-1---1--1--|
G||--2----x-x-x-0---x-x-x-0---x-x-x-0---x-x-x-0---0--0--|
D||-------x-x-x-2---x-x-x-2---x-x-x-2---x-x-x-2---2--2--|
A||-------x-x-x-3---x-x-x-3---x-x-x-3---x-x-x-3---3--3--|
E||-----------------------------------------------------|

    "Lewis... save yourself the pain."

     Am       Em
E||--0--------0---------|
B||--1--------0---------|
G||--2--------0---------|
D||--2--------2---------|
A||--0--------2---------|
E||-----------0---------|

   "It really never"
         "matters (No I swear I swear I swear...")
    D          C
E||--2--------------------------------------------------|
B||--3----x-x-x-1---x-x-x-1---x-x-x-1---x-x-x-1---1--1--|
G||--2----x-x-x-0---x-x-x-0---x-x-x-0---x-x-x-0---0--0--|
D||-------x-x-x-2---x-x-x-2---x-x-x-2---x-x-x-2---2--2--|
A||-------x-x-x-3---x-x-x-3---x-x-x-3---x-x-x-3---3--3--|
E||-----------------------------------------------------|

Bridge:

    "Oh, mistreated..."
    "Mistreated..."
E||--------------0h-3----------|--------------0h-3----------|--\ |
B||-----------3-------3--------|-----------3-------3-----3--| -- |
G||-----0-------------------3--|-----0----------------------| -- |
D||--------0-------------0-----|--------0-------------0-----| -- |
A||----------------------------|--2-------------------------| -- |
E||--3-------------------------|----------------------------| -- |
                                                               |
     "a low corporate."                                         > x2
     "a low corporate."                                        |
                                                               |
E||--------------0h-3----------|--------------0--3-2-0-----|  -- |
B||-----------3-------3-----3--|-----------3------------3--|  -- |
G||-----0----------------------|-----0---------------------|  -- |
D||--------0-------------0-----|--------0------------------|  -- |
A||--1-------------------------|--0------------------------|  -- |
E||----------------------------|---------------------------|---- |


End: (play 6 times)

     G                 Cadd9  B/G
E||--3--3--3--3--3--3--3------3--|--3--3--3--3--3--3--3--3--|
B||--3--3--3--3--3--3--3------3--|--3--3--3--3--3--3--3--3--|
G||--0--0--0--0--0--0--0------0--|--0--0--0--0--0--0--0--0--|
D||--0--0--0--0--0--0------------|--0--0--0--0--0--0--------|
A||--------------------3------2--|--------------------3--2--|
E||--3--3--3--3--3--3------------|--3--3--3--3--3--3--------|

            A7           A7              A7           A7
E||----------------------------|----------------------------|
B||--x-x-x-x-2----x-x-x-x-2----|--x-x-x-x-2----x-x-x-x-2----|
G||--x-x-x-x-0----x-x-x-x-0----|--x-x-x-x-0----x-x-x-x-0----|
D||--x-x-x-x-2----x-x-x-x-2----|--x-x-x-x-2----x-x-x-x-2----|
A||--x-x-x-x-0----x-x-x-x-0----|--x-x-x-x-0----x-x-x-x-0----|
E||----------------------------|----------------------------|

"I don't wanna to talk about it"
"I don't wanna to talk about it"
"I don't wanna to talk about Lewis, Lewis, Lewis"
"I don't wanna to talk about Lewis, Lewis, Lewis"

     G
E||--3----||
B||--3----||
G||--0----||
D||--0----||
A||-------||
E||--3----||

[Tabbed by Abbey Sayago, directly from Mexico City]

[kables_007 @ hotmail.com]
Tap to rate this tab
 
# A B C D E F G H I J K L M N O P Q R S T U V W X Y Z