Song name
# A B C D E F G H I J K L M N O P Q R S T U V W X Y Z

Radiohead - Planet Telex tab

Tabbed by Ruben Meijerink

Effect:

 delay (c.208ms) tremolo (c.4.8Hz) 
 sweeping E.Q.
   

    E           A                      E7          Am/E                    
e|--0-----------0------0-----------|---------------0------0-----------|
B|--0-----------2------2-----------|---3-----------1------1-----------|
G|--1-----------2------2-----------|---4-----------2------2-----------|
D|--2-----------2------2-----------|---2-----------2------2-----------|
G|--2-----------0------0-----------|---2-----------0------0-----------|
E|--0-----------0------0-----------|---0-----------0------0-----------|
                
    E           A                      E7          Am/E                    
e|--0-----------0------0-----------|---------------0------0-----------|
B|--0-----------2------2-----------|---3-----------1------1-----------|
G|--1-----------2------2-----------|---4-----------2------2-----------|
D|--2-----------2------2-----------|---2-----------2------2-----------|
G|--2-----------0------0-----------|---2-----------0------0-----------|
E|--0-----------0------0-----------|---0-----------0------0-----------|

Tap to rate this tab
# A B C D E F G H I J K L M N O P Q R S T U V W X Y Z