Guitaretab - guitar tabs
Song name
# A B C D E F G H I J K L M N O P Q R S T U V W X Y Z

Radiohead - Blow Out Acoustic tab

----------------------------------------------------------------------------
			     BLOW OUT ACOUSTIC - Radiohead
----------------------------------------------------------------------------
Tabbed by: Matt

Tuning: Standard


e|---2----2-2--2-2---2------------|
B|---0----0-0--0-0---0------------|
G|---0----0-0--0-0---0---0-0------|
D|---2----2-2--2-2---2---4-4------|
A|---2----2-2--2-0---0---4-4------|
E|-----------------------0-0------|
[ Tab from: http://www.guitaretab.com/r/radiohead/181192.html ]
e|---2----2-2--2-2---2--------------3-0--0------3--0--0-------------------|
B|---0----0-0--0-0---0--------------0--2--2------0--2--2-------------------|
G|---0----0-0--0-0---0---0-0--------0--2--2------0--2--2-------------------|
D|---2----2-2--2-2---2---4-4--------0--2--2------0--2--2-------------------|
A|---2----2-2--2-0---0---4-4--------2-0--0------2--0--0-------------------|
E|-----------------------0-0--------3-0--0------3--0--0-------------------|
Related for Blow Out Acoustic tab