Song name
# A B C D E F G H I J K L M N O P Q R S T U V W X Y Z

Radiohead - Myxomatosis tab

Artist: Radiohead
Song: myxomatosis

Originally writtan by Hesham Yassin
exhesham@gmail.com

Play with Distortion

e|---8-5-7-3-5-1-3-0-1/12---|
B|--------------------------|
G|--------------------------|
D|--------------------------|
A|--------------------------|
E|--------------------------|


e|---13-9-5-7-3-5/10-8-5/15-|
B|--------------------------|
G|--------------------------|
D|--------------------------|
A|--------------------------|
E|--------------------------|

e|---10-8-5-7-3-5-1-3-1/12--|
B|--------------------------|
G|--------------------------|
D|--------------------------|
A|--------------------------|
E|--------------------------|

e|---13-8-5-7-3-5/10--------|
B|--------------------------|
G|--------------------------|
D|--------------------------|
A|--------------------------|
E|--------------------------|

e|---8-5/15-8-12------------|
B|--------------------------|
G|--------------------------|
D|--------------------------|
A|--------------------------|
E|--------------------------|

Enjoy my first tab :) !
Tap to rate this tab
# A B C D E F G H I J K L M N O P Q R S T U V W X Y Z