Song name
# A B C D E F G H I J K L M N O P Q R S T U V W X Y Z

Radiohead - These Are My Twisted Words tab

'These Are My Twisted Words' by Radiohead

this is just the main section of the song

drop-C tuning

t-tap
p-pull off

e--------------------------------------------------------------|
B----3-4-----4---4---------4-----4---4---------4-----4---4-----|
G--------3---0---0-------0-------0---0-------0-------0---0-----|
D--------------------------------------------------------------|
A--------------4---3---------3-----4---3---------3-----4---3---|
C--0-------------------0-------------------0-------------------|

e------------------------------------------|
B------5-----5---5---------5-----5---5-----|
G----0-------0---0-------0-------0---0-----|
D------------------------------------------|
A--------3-----4---3---------3-----4---3---|
C--0-------------------0-------------------|

e------------------------------------------|
B------4-----4---4---------4-----4---4-----|
G----0-------0---0-------0-------0---0-----|
D------------------------------------------|
A--------3-----4---3---------3-----4---3---|
C--0-------------------0-------------------|

e--------------------------------------------------------------|
B------5-----5---5---------5-----5---5---------5-----5---5-----|
G----0-------0---0-------0-------0---0-------0-------0---0-----|
D--------------------------------------------------------------|
A--------3-----4---3---------3-----4---3---------3-----4---3---|
C--0-------------------0-------------------0-------------------|

e------------------------------------------|
B------7-----7---7---------7-----7---7-----|
G----0-------0---0-------0-------0---0-----|
D------------------------------------------|
A--------5-----6---5---------5-----6---5---|
C--0-------------------0-------------------|

e------------------------------------------|
B------5-----5---5---------5-----5---5-----|
G----0-------0---0-------0-------0---0-----|
D------------------------------------------|
A--------3-----4---3---------3-----4---3---|
C--0-------------------0-------------------|

e--------------------------------------------------------------|
B------8-----8---8---------8-----8---8---------8-----8---8-----|
G----0-------0---0-------0-------0---0-------0-------0---0-----|
D--------8-----7-------------8-----7-------------8-----7-------|
A------------------8-------------------8-------------------8---|
C--0-------------------0-------------------0-------------------|

e---------------------------------------------|
B------3-----3---3---------3-----3---------3--|
G----0-------0---0-------0-------0---------0--|
D--------3-----2-------------3-----2t3p2------|
A------------------3---------------------3----|
C--0-------------------0----------------------|

e-----------------------------------------|
B------1-----1---1---------1-----1---1----|
G----0-------0---0-------0-------0---0----|
D--------1-----0-------------1-----0------|
A------------------1-------------------1--|
C--0-------------------0------------------|

e-----------------------------------------|
B------3-----3---3---------3-----3---3----|
G----0-------0---0-------0-------0---0----|
D--------3-----2-------------3-----2------|
A------------------3-------------------3--|
C--0-------------------0------------------|

thats the basic jist of the tune
its quite the track!
Tap to rate this tab
 
# A B C D E F G H I J K L M N O P Q R S T U V W X Y Z