Song name
# A B C D E F G H I J K L M N O P Q R S T U V W X Y Z

Radiohead - Romeo And Juliet tab

Standard tuning.

Slide= >
Vibrate= ~

e--------------------------------------------|
B--------------------------------------------|
G--------------------------8->--7->---5~-----|
D--------------------------8->--7->---5~-----|
A--------------------------------------------|
E------6->-8---------------------------------| 2x

e--------------------------------------------|
B--------------------------------------------|
G---------------8->--7->---5~----------------|
D---------------8->--7->---5~----------------|
A--------------------------------------------|
E--------------------------------------------| 6x


e--------------------------------------------|
B------------------------4-------------------|
G--------------------------------------------|
D----------------6--5~-----------------------|
A--------------------------------------------|
E----------4~--------------------------------| 2x


e--------------------------------------------|
B--------------------------------------------|
G---------------8->--7->---5~----------------|
D---------------8->--7->---5~----------------|
A--------------------------------------------|
E--------------------------------------------| 7x

e--------------------------------------------|
B------------------------4-------------------|
G--------------------------------------------|
D----------------6--5~-----------------------|
A--------------------------------------------|
E----------4~--------------------------------| 2x

e--------------------------------------------|
B--------------------------------------------|
G---------------8->--7->---5~----------------|
D---------------8->--7->---5~----------------|
A--------------------------------------------|
E--------------------------------------------| 7x

e--------------------------------------------|
B------------------------4-------------------|
G--------------------------------------------|
D----------------6--5~-----------------------|
A--------------------------------------------|
E----------4~--------------------------------| 2x


And so on and so forth. The same keeps repeating.
Hope you enjoy.
Tap to rate this tab
 
# A B C D E F G H I J K L M N O P Q R S T U V W X Y Z