Song name
# A B C D E F G H I J K L M N O P Q R S T U V W X Y Z

Radiohead - Thinking About You tab

-------------------------------------------------------------------------------
			     Thinking About You - Radiohead
-------------------------------------------------------------------------------
Tabbed by: Gruff
Email: gruffjohn@hotmail.co.uk

Tuning: Standard (EADGBe)

The other versions were good, but not perfect. This sounds right to 
me, although I'm not going to include the rhythm, as it's pretty much 
just constant strumming throughout the song, and not hard to pick up, 
so just listen to the song and you should get it.


Verse
(The G(355433) is constant strumming, with the rhythm, then on the 
fourth beat of every bar, play the (335433)'s)
e|---3-------------3---3-------------| |
B|---3-------------3---3-------------| |
G|---4-------------4---4-------------| |
D|---5-------------5---5-------------|  }x4
A|---5-------------3---3-------------| |
E|---3-------------3---3-------------| |

e|-----------0-----------------------|
B|---3-------3-------3---------------|
G|---2-------0-------2---------------|
D|---0-------2-------0---------------|
A|---0-------2-------0---------------|
E|---2-------0-------2---------------|

e|---3-------------3---3-------------| |
B|---3-------------3---3-------------| |
G|---4-------------4---4-------------| |
D|---5-------------5---5-------------|  }x2
A|---5-------------3---3-------------| |
E|---3-------------3---3-------------| |



Chorus
(Just like in the verse, the C(x32010) is constant strumming, with the 
rhythm, then on the fourth beat of every bar, play the (x30010)'s)
e|--0---------0---0----------0--------0---0---------| |
B|--1---------1---1----------1--------1---1---------| |
G|--0---------0---0----------0--------0---0---------| |
D|--2---------0---0----------2--------0---0---------|  }x2
A|--3---------3---3----------3--------3---3---------| |
E|--------------------------------------------------| |

e|----2-------------0--------0---0----------------0--0--0--0----------------|
B|----3-------------1--------1---1----------------1--1--1--1----------------|
G|----4-------------0--------0---0----------------0--0--0--0----------------|
D|----4-------------2--------0---0----------------2--0--2--0----------------|
A|----2-------------3--------3---3----------------3--3--3--3----------------|
E|--------------------------------------------------------------------------|
(The chorus ends with the guitar constantly switching from C(x32010) to the
 Csus2(x30010))



'Solo'

e|----8-----8-----8-----8-----7-----0-----------0-----0---------------------|
B|--5-----5-----5-----5-----3----3----3-------5-----5-----5-----------------|
G|------------------------------------------7-----7-----7-------------------|
D|--------------------------------------------------------------------------|
A|--------------------------------------------------------------------------|
E|--------------------------------------------------------------------------|

e|--------0-----0-------------| |
B|------5-----5-----5---------| |
G|----7-----7-----7-----------| |
D|----------------------------|  }x4
A|----------------------------| |
E|----------------------------| |

e|---7-----|
B|---3-----|
G|---0-----|
D|---------|
A|---------|
E|---------|




Verse  x3 (Once for the intro, then twice for the actual verse)
Chorus x1
Verse  x2
Chorus x1 (The solo is played over this)
Verse  x1
Chorus x1

After the last chorus, just hold out a G(355433)

===============================================================================
Tap to rate this tab
# A B C D E F G H I J K L M N O P Q R S T U V W X Y Z