Song name
# A B C D E F G H I J K L M N O P Q R S T U V W X Y Z

Radiohead - Lurgee tab

One of my favourite songs on Pablo Honey.
Could never find a correct tab for it so here is what i think is played.

Guitar 1 (0:00-1:06)
E|-----------------------------|
B|-------1---1---3---1-1p0h1---|
G|---------0---0---0-----------|
D|-----2-----------------------|
A|---3-------------------------|
E|-----------------------------|

Guitar 2 (0:56-1:06)
E|-----------------------------|
B|---5b6r5---------------0-1---|
G|---------5---4b5r4-0---------|
D|-----------------------------|
A|-----------------------------|
E|-----------------------------|

===============================

Guitar 1 (1:06-1:44)
E|-----------------------------|
B|-------1---1---3---1-1p0h1---|
G|---------0---0---0-----------|
D|-----2-----------------------|
A|---3-------------------------|
E|-----------------------------|

Guitar 2 (1:06-1:44)
E|---------------------1-1p0-3-|
B|-----------------------------|
G|-----------------------------|
D|-----------------------------|
A|-----------------------------|
E|-----------------------------|

===============================

Guitar 1 (1:44-1:52)
E|-----------------------------|
B|-------1---1---3---1-1p0h1---|
G|---------0---0---0-----------|
D|-----2-----------------------|
A|---3-------------------------|
E|-----------------------------|

Guitar 2 (1:44-1:52)
E|-----------------------------|
B|---5b6r5---------------0-1---|
G|---------5---4b5r4-0---------|
D|-----------------------------|
A|-----------------------------|
E|-----------------------------|

===============================

Guitar 1 (1:44-End)
E|-----------------------------|
B|-------1---1---3---1-1p0h1---|
G|---------0---0---0-----------|
D|-----2-----------------------|
A|---3-------------------------|
E|-----------------------------|

Guitar 2 (1:52-2:00)
E|-----------------------------|
B|--/5-5h6p5-------------------|
G|----------5p0-5-4b5r4-0------|
D|-----------------------------|
A|-----------------------------|
E|-----------------------------|

E|-----------------------------|
B|--/5-5h6p5-----/5-5h6p5------|
G|----------5p0-----------5p0--|
D|-----------------------------|
A|-----------------------------|
E|-----------------------------|

Guitar 2 (2:00-2:14)

E|-----------------------------|
B|-5-6-5-6-5-6-5-6-5-6-6-6-6-6-|
G|-----------------------------|
D|-----------------------------|
A|-----------------------------|
E|-----------------------------|

E|-----------------------------|
B|-6b8-8-8-8-8-8-8-8-8-8-8-8-8-| *hold the bend
G|-----------------------------|
D|-----------------------------|
A|-----------------------------|
E|-----------------------------|

E|-----------------------------|
B|-8r6-5-6-6-5-5-5h6-6-6---6-6-|
G|-----------------------------|
D|-----------------------------|
A|-----------------------------|
E|-----------------------------|

Guitar 2 (2:14- End)

E|-----------------------------|
B|-5-6-5--6-5-6 8-8b10-8b10-8--|
G|-----------------------------|
D|-----------------------------|
A|-----------------------------|
E|-----------------------------|

The end of the song just involves bending 6th and 8th fret on the B string up a full 
each. It's quite difficult to tab and sounds improvised.
Tap to rate this tab
# A B C D E F G H I J K L M N O P Q R S T U V W X Y Z