Song name
# A B C D E F G H I J K L M N O P Q R S T U V W X Y Z

Radiohead - Lucky tab

                                  "Lucky"

                            Words and Music by:
Colin Greenwood, Jonathan Greenwood, Edward O'Brien, Philip Selway & Thomas Yorke

Transcription by Leatherface74

   Gtr. 3 (Ed)
    *
E||-x-x-x-x-x-x-x-x-x-|-x-x-x-x-x-x-x-x-x-|-x-x-x-x-x-x-x-x-x-|
B||-x-x-x-x-x-x-x-x-x-|-x-x-x-x-x-x-x-x-x-|-x-x-x-x-x-x-x-x-x-|
G||-x-x-x-x-x-x-x-x-x-|-x-x-x-x-x-x-x-x-x-|-x-x-x-x-x-x-x-x-x-|
D||-------------------|-------------------|-------------------|
A||-------------------|-------------------|-------------------|
E||-------------------|-------------------|-------------------|

|----------------------------------------------------------|
|*Note: These X's are strummed behind the nut of the guitar|
| while holding an Em chord. Use a pitch shifter set to    |
| raise the pitch one octave and a delay pedal.            |
|----------------------------------------------------------|


 Gtr. 3
|-x-x-x-x-x-x-x-x-x-|-x-x-x-x-x-x-x-x-x-|-x-x-x-x-x-x-x-x-x-|
|-x-x-x-x-x-x-x-x-x-|-x-x-x-x-x-x-x-x-x-|-x-x-x-x-x-x-x-x-x-|
|-x-x-x-x-x-x-x-x-x-|-x-x-x-x-x-x-x-x-x-|-x-x-x-x-x-x-x-x-x-|
|-------------------|-------------------|-------------------|
|-------------------|-------------------|-------------------|
|-------------------|-------------------|-------------------|

Gtr. 3 continues strumming behind the nut throughout the verse

    I'm on a roll             I'm on a      roll              this time
 Gtr. 1 (Thom)
|------------------0------|-------3------|--------------2-0------------|
|-------0----------1------|-------0--0-0-|-------3----3--------3-3---0-|
|-------0----------2--0-0-|-------0--0-0-|--4----4--4-------4--4-4-4-0-|
|-------2-------2-----0-0-|-------0------|--4----4----------4--4-------|
|-------2----0----------0-|--------------|--2---------------2----------|
|--0----0-----------------|--3-----------|-----------------------------|


					     I        feel    my     luck  could
 Gtr. 1
|----------------------------|-------------------3--3-3-|-------2------|
|-------0--0-0-------0-0-0---|-------1--1-1------0--0-0-|-------3------|
|-------0--0-0-------0-0-0-0-|-------0--0-0------0--0-0-|--4----4--4-0-|
|-------2--2-2-2--2--2-2-2-0-|--2----2--2-2-------------|--4----4--4-0-|
|-------2----2-2--2--2-2-2---|--3-----------------------|--------------|
|--0----0------0-------------|--------------3-----------|--------------|

   change
 Gtr. 1
|------------0---------------|------------0---------------|
|-------0----0-------0-0-0-0-|-------0----0-------0-0-0-0-|
|-------0------------0-0-0-0-|-------0------------0-0-0-0-|
|-------2---------2--2-2-2-2-|-------2---------2--2-2-2-2-|
|----------2---2--2--2-2-2-2-|----------2---2--2--2-2-2-2-|
|--0-------------------------|--0-------------------------|


     Kill    me     Sarah       kill   me    again                with
 Gtr. 1
|-------------------0------|-------3--3-3-|--------------2-0-----------|
|-------0--0-0------1------|-------0--0-0-|-------3----3----------3----|
|-------0--0-0------2--0-0-|-------0--0-0-|--4----4--4-----------------|
|-------2--2-2------2--0-0-|--------------|--4----4----------4--4------|
|--------------0-----------|--------------|-------------------------0--|
|--0-----------------------|--3-----------|----------------------------|
                            (2/4)


   love                         It's gonna    be  a     glorious
 Gtr. 1
|------------0---------------|-------0----------------|-------2------|
|-------0----0-0-------------|-------1---------0--0-0-|-------3------|
|-------0------0-----0-0---0-|-------0---------0--0-0-|--4----4--4-4-|
|-------2--2---2-----2---2-0-|--2----2---------0--0-0-|--4----4--4-4-|
|-----------------2----------|--3---------2-----------|--------------|
|--0--------------0----------|------------3-----------|--------------|
                                                       (2/4)


    day                                         Pull me
[ Gtr. 1
[|------------0---------------|--------------------------|
[|-------0----0-------0-0-0-0-|-------0--0-0-------0--0--|
[|-------0------------0-0-0-0-|-------0--0-0-------0--0--|
[|-------2---------2--2-2-2-2-|-------2--2-2-------2--2--|
[|----------2---2--2--2-2-2-2-|--------------2--2-----2--|
[|--0-------------------------|--0-----------0--0--------|
[
[ Gtr. 2
[   *                                  (Tremolo off)  .5
[|----------------------------|--------------------------|
[|--0-------------------------|----------------------14br|
[|--4-------------------------|--------------------------|
[|--5-------------------------|--------------------------|
[|--2-------------------------|--------------------------|
[|--0-------------------------|--------------------------|
[
[ Gtr. 3
[|--x-x-x-x-x-x-x-x-x-x-x-x-x-|-x-x-x-x-x-x--------------|
[|--x-x-x-x-x-x-x-x-x-x-x-x-x-|-x-x-x-x-x-x--------------|
[|--x-x-x-x-x-x-x-x-x-x-x-x-x-|-x-x-x-x-x-x--------------|
[|----------------------------|--------------2-2-2-2-2-2-|
[|----------------------------|--------------2-2-2-2-2-2-|
[|----------------------------|--------------0-0-0-0-0-0-|

|-------------------------------------------------------------------|
| *Note: Jonny uses his tremolo unit to achieve the wah-like        |
|  effect heard here. To recreate this sound, set the tremolo's     |
|  depth as deep as it goes and set it at a moderate speed. While   |
|  playing the part begin with a slow strum and gradually begin to  |
|  strum faster and harder. The resulting sound should be close or  |
|  identical to that of the song's. This effect can also be heard   |
|  in the intro to "Bones".                                         |
|-------------------------------------------------------------------|


1st Chorus


    Out             of the    air craft       pull me
[ Gtrs. 1 & 3
[|--0----0--0--0----0--0-0-|--0----0--0--0----0--0-0--|
[|--2----2--2--2----2--2-2-|--0----0--0--0----0--2-2--|
[|--2----2--2--2----2--2-2-|--0----0--0--0----0--2-2--|
[|--2----2--2--2----2--2-2-|--2----2--2--2----2--2-2--|
[|--0----0--0--0----0--0-0-|--2----2--2--2----2--0-0--|
[|-------------------------|--0----0--0--0----0--0-0--|
[
[ Gtr. 2                                          .5
[|-------------------------|--------------------------|
[|----(14)-12--------------|---------------------14br-|
[|---------------14----12--|---------12------12-------|
[|-------------------------|--14---------14-----------|
[|-------------------------|--------------------------|
[|-------------------------|--------------------------|


    out               of the  lake                cuz I'm your
[ Gtrs. 1 & 3
[|--0----0--0--0----0--0-0-|--0------0---0---0------0---0--0--|
[|--2----2--2--2----2--2-2-|--0------0---0---0------0---2--2--|
[|--2----2--2--2----2--2-2-|--0------0---0---0------0---2--2--|
[|--2----2--2--2----2--2-2-|--2------2---2---2------2---2--2--|
[|--0----0--0--0----0--0-0-|--2------2---2---2------2---0--0--|
[|-------------------------|--0------0---0---0------0---0--0--|
[
[ Gtr. 2                                         .5
[|-------------------------|--------------------14br--12------|
[|----(14)-12--------------|------------------------------14--|
[|---------------14----12--|------12--------12----------------|
[|-------------------------|----------12h14-------------------|
[|-------------------------|----------------------------------|
[|-------------------------|----------------------------------|


    super---------------------hero    and   we   are   standing on the
[ Gtrs. 1 & 3                                         Gtr. 1
[|--0----0--0--0----0--0-0-|--0----0--0--0----0--0-0-|--------------|
[|--2----2--2--2----2--2-2-|--0----0--0--0----0--0-0-|-----------1--|
[|--2----2--2--2----2--2-2-|--0----0--0--0----0--0-0-|--------3-----|
[|--2----2--2--2----2--2-2-|--2----2--2--2----2--2-2-|-----2--------|
[|--0----0--0--0----0--0-0-|--2----2--2--2----2--2-2-|--3-----------|
[|-------------------------|--0----0--0--0----0--0-0-|--------------|
[
[ Gtr. 2
[    .5
[|-------------------------|-------------------------|--------------|
[|--14br----12-------------|-------------------------|--------------|
[|----------------14---12--|-------------------------|--------------|
[|-------------------------|---14----12--------------|--------------|
[|-------------------------|--------------14---12----|--------------|
[|-------------------------|-------------------------|--------------|


 edge
 Gtr. 1
   ^
|-------------------|------------0--------0----|
|--0----------------|------------0--0-----0--0-|
|--2----------------|-------0--0----0--------0-|
|--1----------------|-------2--2---------------|
|--2----------------|--2-----------------------|
|-------------------|--0----------------0------|

[ Gtr. 1                           fdghfsghsf
[|------------0----------------|------------0---------------|
[|------------0--0-------------|------------0--0----0-0-0-0-|
[|-------0--0----0-------------|-------0--0----0----0-0-0-0-|
[|-------2--2------------------|-------2--2---------2-2-2-2-|
[|--2--------------2-2-2-2-2-2-|--2--------------2----------|
[|--0--------------0-0-1-1-1-1-|--0--------------0----------|
[
[ Gtr. 1                          *
[|-----------------------------|------------------------------------|
[|-----------------------------|--0---------------------------------|
[|-----------------------------|--4---------------------------------|
[|-----------------------------|--5---------------------------------|
[|-----------------------------|--2---------------------------------|
[|-----------------------------|--0---------------------------------|
                                |-----------------------------------|
                                |*Note: with heavy tremolo effect.|
                                |---------------------------------|

                                 The head of state       has called for
 Gtr. 1
|-----------0---------0-----|------------------0------|-------3------|
|-----------0--0------0---0-|-------0----------1------|-------0--0-0-|
|--------------0----------0-|-------0----------2--0-0-|-------0--0-0-|
|---------------------------|-------2-------2-------0-|--------------|
|--2----2--------2--2---2---|------------0------------|--------------|
|--0----0--------0--0---0---|--0----------------------|--3-----------|


   me                   by        name
 Gtr. 1
|--------------2-0------------|------------0---------------|
|-------3----3--------3-3---0-|-------0----0-------0-0-0---|
|--4----4--4-------4--4---4-0-|-------0------------0-0-0-0-|
|--4----4----------4--4-------|-------2--2------2--2-2-2-0-|
|-----------------------------|--------------2--2--2-2-2---|
|-----------------------------|--0-------------------------|

     but  I    don't   have   time for him
 Gtr. 1
|-------------------3--3-3-|-------2------|------------0---------------|
|-------1--1-1------0--0-0-|-------3------|-------0----0-------0-0-0-0-|
|-------0--0-0------0--0-0-|--4----4--4-0-|-------0------------0-0-0-0-|
|--2----2--2-2-------------|--4----4--4-0-|-------2---------2--2-2-2-2-|
|--3-----------------------|--------------|----------2---2--2--2-2-2-2-|
|--------------3-----------|--------------|--0-------------------------|


                                 It's gonna  be                  a  Glo-
 Gtr. 1
|------------0---------------|-------------------0------|-------3--3-3-|
|-------0----0-------0-0-0-0-|-------0--0-0------1------|-------0--0-0-|
|-------0------------0-0-0-0-|-------0--0-0------2--0-0-|-------0--0-0-|
|-------2---------2--2-2-2-2-|-------2--2-2------2--0-0-|--------------|
|----------2---2--2--2-2-2-2-|--------------0-----------|--------------|
|--0-------------------------|--0-----------------------|--3-----------|


  -rious                       day
 Gtr. 1
|--------------2-0-----------|------------0---------------|
|-------3----3----------3----|-------0----0-0-------------|
|--4----4--4-----------------|-------0------0-----0-0---0-|
|--4----4----------4--4------|-------2--2---2-----2---2-0-|
|-------------------------0--|-----------------2----------|
|----------------------------|--0--------------0----------|

  I          feel   my      luck could      change
 Gtr. 1
|-------0----------------|-------2------|------------0---------------|
|-------1---------0--0-0-|-------3------|-------0----0-------0-0-0-0-|
|-------0---------0--0-0-|--4----4--4-4-|-------0------------0-0-0-0-|
|--2----2---------0--0-0-|--4----4--4-4-|-------2---------2--2-2-2-2-|
|--3---------2-----------|--------------|----------2---2--2--2-2-2-2-|
|------------3-----------|--------------|--0-------------------------|


Chorus

                    Pull me    out             of the
[ Gtr. 1
[|--------------------------|--0----0--0--0----0--0-0-|
[|-------0--0-0-------0--0--|--2----2--2--2----2--2-2-|
[|-------0--0-0-------0--0--|--2----2--2--2----2--2-2-|
[|-------2--2-2-------2--2--|--2----2--2--2----2--2-2-|
[|--------------2--2-----2--|--0----0--0--0----0--0-0-|
[|--0-----------0--0--------|-------------------------|
[
[ Gtr. 2                .5
[|--------------------------|-------------------------|
[|---------------------14br-|------14--12-------------|
[|--------------------------|----------------14----12-|
[|--------------------------|-------------------------|
[|--------------------------|-------------------------|
[|--------------------------|-------------------------|


    air craft       pull me     out       of the  lake
[ Gtrs. 1 & 3
[|--0----0--0--0----0--0-0-|--0----0--0--0----0--0-0-|
[|--0----0--0--0----0--2-2-|--2----2--2--2----2--2-2-|
[|--0----0--0--0----0--2-2-|--2----2--2--2----2--2-2-|
[|--2----2--2--2----2--2-2-|--2----2--2--2----2--2-2-|
[|--2----2--2--2----2--0-0-|--0----0--0--0----0--0-0-|
[|--0----0--0--0----0--0-0-|-------------------------|
[
[ Gtr. 2                .5
[|-------------------------|-------------------------|
[|--------------------14br-|------14--12-------------|
[|---------12------12------|----------------14/---12-|
[|---14--------14----------|-------------------------|
[|-------------------------|-------------------------|
[|-------------------------|-------------------------|

    cuz I'm your                     super------------------
[
[|--0-----0---0---0-----0----0--0-|--0----0--0--0----0--0-0-|
[|--0-----0---0---0-----0----2--2-|--2----2--2--2----2--2-2-|
[|--0-----0---0---0-----0----2--2-|--2----2--2--2----2--2-2-|
[|--2-----2---2---2-----2----2--2-|--2----2--2--2----2--2-2-|
[|--2-----2---2---2-----2----0--0-|--0----0--0--0----0--0-0-|
[|--0-----0---0---0-----0----0--0-|-------------------------|
[
[ Gtr. 2               .5              .5
[|--------------------14br-12-----|-------------------------|
[|-----------------------------14-|---14br----12------------|
[|------12--------12--------------|-----------------14---12-|
[|----------12h14-----------------|-------------------------|
[|--------------------------------|-------------------------|
[|--------------------------------|-------------------------|


   -hero     and   we   are  standing on the edge
[ Gtr. 1                                     ^
[|--0----0--0--0----0--0-0-|--------------|-------------------|
[|--0----0--0--0----0--0-0-|-----------1--|--0----------------|
[|--0----0--0--0----0--0-0-|--------3-----|--2----------------|
[|--2----2--2--2----2--2-2-|-----2--------|--1----------------|
[|--2----2--2--2----2--2-2-|--3-----------|--2----------------|
[|--0----0--0--0----0--0-0-|--------------|-------------------|
[
[ Gtr. 2
[|-------------------------|--------------|-------------------|
[|-------------------------|--------------|-------------------|
[|-------------------------|--------------|-------------------|
[|---14----12--------------|--------------|-------------------|
[|--------------12---14----|--------------|-------------------|
[|-------------------------|--------------|-------------------|

Interlude

[ Gtr. 1
[|--------------------------------------|
[|---------7--7--7--7--7--x-5---x-x-3---|
[|---------0--0--0--0--0--x-0---x-x-0---|
[|---------x--x--x--x--x--x-x---x-x-x---|
[|---------9--9--9--9--9--x-7---x-x-5---|
[|--0-----------------------------------|

[ Gtr. 1
[|--------------------------------|--------------------------------------|
[|--x-x-1-------------------------|---------7--7--7--7--7--x-5---x-x-3---|
[|--x-x-0---x-x-----0---0---0---0-|---------0--0--0--0--0--x-0---x-x-0---|
[|--x-x-x---x-x-------------------|---------x--x--x--x--x--x-x---x-x-x---|
[|--x-x-3---x-x-------------------|---------9--9--9--9--9--x-7---x-x-5---|
[|----------x-x-2-----2---2---2---|--0-----------------------------------|
[
[ Gtr. 1                       *
[|--------------------------------|----------------------------------------|
[|-----------------------------0--|----------------------------------------|
[|-----------------------------4--|----------------------------------------|
[|-----------------------------4--|----------------------------------------|
[|-----------------------------2--|----------------------------------------|
[|-----------------------------0--|----------------------------------------|
                              |--------------------------------------------|
                              |* Note: With heavy tremolo effect.    |
                              |  Strum for the next 6 bars gradually |
                              |  getting faster and picking harder.  |
                              |--------------------------------------|

[ Gtr. 1
[|------------------0---0---0---0-|--------------------------------------|
[|------1-----------0---0---0---0-|---------7--7--7--7--7--x-5---x-x-3---|
[|--x-x-0---x-x-----0---0---0---0-|---------0--0--0--0--0--x-0---x-x-0---|
[|--x-x-x---x-x-0-----------------|---------x--x--x--x--x--x-x---x-x-x---|
[|--x-x-3---x-x-x-----------------|---------9--9--9--9--9--x-7---x-x-5---|
[|--x-x-----x-x-2-----2---2---2---|--0-----------------------------------|
[
[ Gtr. 3
[|--------------------------------|--------------------------------------|
[|--------------------------------|---------19-19-19-19-19---17------15--|
[|--------------------------------|---------x--x--x--x--x--x-x---x-x-x---|
[|--------------------------------|---------16-16-16-16-16-x-14--x-x-12--|
[|--------------------------------|------------------------x-----x-x-----|
[|--------------------------------|--0--0-0----------------x-----x-x-----|

[ Gtr. 1
[|---------------------------------|--------------------------------------|
[|--x-x-1--------------------------|---------7--7--7--7--7--x-5---x-x-3---|
[|--x-x-0---x-x------0---0---0---0-|---------0--0--0--0--0--x-0---x-x-0---|
[|--x-x-x---x-x--------------------|---------x--x--x--x--x--x-x---x-x-x---|
[|--x-x-3---x-x--------------------|---------9--9--9--9--9--x-7---x-x-5---|
[|----------x-x-2------2---2---2---|--0-----------------------------------|
[
[ Gtr. 3
[|---------------------------------|--------------------------------------|
[|------13-------------------------|---------19-19-19-19-19---17------15--|
[|--x-x-x---x-x-11-11-11-11/12-11--|--9------x--x--x--x--x--x-x---x-x-x---|
[|--x-x-10--x-x--x--x--x--x-----x--|--x------16-16-16-16-16-x-14--x-x-12--|
[|--x-x-----x-x--9--9--9--9/10--9--|--7---------------------x-----x-x-----|
[|--x-x-----x-x--------------------|--0--0-0----------------x-----x-x-----|


[ Gtr. 1
[|------------------0---0---0---0-|
[|------1-----------0---0---0---0-|
[|--x-x-0---x-x-----0---0---0---0-|
[|--x-x-x---x-x-0-----------------|
[|--x-x-3---x-x-x-----------------|
[|--x-x-----x-x-2-----2---2---2---|
[
[ Gtr. 3
[|--------------------------------|
[|------13------------------------|
[|--x-x-x---x-x-11-11-11-11/12-11-|
[|--x-x-10--x-x--x--x--x--x-----x-|
[|--x-x-----x-x--9--9--9--9/10--9-|
[|--x-x-----x-x-------------------|

[ Gtr. 1
[|---------------0-----------0-----|----------------0-----------0-----|
[|---------------0---0-------0---0-|----------------0---0-------0---0-|
[|--------0---0------0-----------0-|--------0---0-------0-----------0-|
[|--------2---2--------------------|--------2---2---------------------|
[|--2------------------------------|--2-------------------------------|
[|--0---------------------0--------|--0----------------------0--------|
[
[ Gtr. 2                                                           .5
[|----0-----0--0-0---0-0-0---0-0-0-|--0-----0---0--0------------------|
[|----5-----5------5-------5-------|--5--5------5--5---5--8p5-8---14br|
[|--0---0-0------------------------|----------------------------------|
[|---------------------------------|----------------------------------|
[|---------------------------------|----------------------------------|
[|---------------------------------|----------------------------------|
[
[ Gtr. 3
[|---------------------------------|------------------------------0-0-|
[|---------------------------------|------------------------------2-2-|
[|-0-0-0-0-0-0-0-0-0-0-0-0-0-0-0-0-|--0-0-0-0-0-0-0-0-0-0-0-0-0-0-2-2-|
[|-2-2-2-2-2-2-2-2-2-2-2-2-2-2-2-2-|--2-2-2-2-2-2-2-2-2-2-2-2-2-2-2-2-|
[|-2-2-2-2-2-2-2-2-2-2-2-2-2-2-2-2-|--2-2-2-2-2-2-2-2-2-2-2-2-2-2-0-0-|
[|-0-0-0-0-0-0-0-0-0-0-0-0-0-0-0-0-|--0-0-0-0-0-0-0-0-0-0-0-0-0-0-----|

[ Gtrs. 1 & 3
[|--0----0--0--0----0--0-0-|--0-----0---0---0-----0---0-0-|
[|--2----2--2--2----2--2-2-|--0-----0---0---0-----0---2-2-|
[|--2----2--2--2----2--2-2-|--0-----0---0---0-----0---2-2-|
[|--2----2--2--2----2--2-2-|--2-----2---2---2-----2---2-2-|
[|--0----0--0--0----0--0-0-|--2-----2---2---2-----2---0-0-|
[|-------------------------|--0-----0---0---0-----0---0-0-|
[
[ Gtr. 2                                               .5
[|-------------------------|------------------------------|
[|----(14)--12-------------|--------------------------14br|
[|----------------14----12-|--------------12------12------|
[|-------------------------|----14----14------14----------|
[|-------------------------|------------------------------|
[|-------------------------|------------------------------|

[ Gtrs. 1 & 3
[|--0----0--0--0----0--0-0-|--0-----0---0---0-----0---0--0-|
[|--2----2--2--2----2--2-2-|--0-----0---0---0-----0---2--2-|
[|--2----2--2--2----2--2-2-|--0-----0---0---0-----0---2--2-|
[|--2----2--2--2----2--2-2-|--2-----2---2---2-----2---2--2-|
[|--0----0--0--0----0--0-0-|--2-----2---2---2-----2---0--0-|
[|-------------------------|--0-----0---0---0-----0---0--0-|
[
[ Gtr. 2                                       .5
[|-------------------------|------------------14br--12-----|
[|------14--12-------------|----------------------------14-|
[|----------------14/---12-|----12--------12---------------|
[|-------------------------|--------12h14------------------|
[|-------------------------|-------------------------------|
[|-------------------------|-------------------------------|

[ Gtrs. 1 & 3                                  We are standing on the
[|--0----0--0--0----0--0-0-|--0----0--0--0----0--0-0-|--------------|
[|--2----2--2--2----2--2-2-|--0----0--0--0----0--0-0-|-----------1--|
[|--2----2--2--2----2--2-2-|--0----0--0--0----0--0-0-|--------3-----|
[|--2----2--2--2----2--2-2-|--2----2--2--2----2--2-2-|-----2--------|
[|--0----0--0--0----0--0-0-|--2----2--2--2----2--2-2-|--3-----------|
[|-------------------------|--0----0--0--0----0--0-0-|--------------|
[
[ Gtr. 2
[    .5
[|-------------------------|-------------------------|--------------|
[|--14br-14--12------------|-------------------------|--------------|
[|----------------14----12-|-------------------------|--------------|
[|-------------------------|--14----12---------------|--------------|
[|-------------------------|----------------14----12-|--------------|
[|-------------------------|-------------------------|--------------|


  edge.
   ^
|-------------------||
|--0----------------||
|--2----------------||
|--1----------------||
|--2----------------||
|-------------------||
Tap to rate this tab
# A B C D E F G H I J K L M N O P Q R S T U V W X Y Z